  0
SECTION
  2
HEADER
  9
$ACADVER
  1
AC1015
  9
$ACADMAINTVER
 70
     6
  9
$DWGCODEPAGE
  3
DOS850
  9
$INSBASE
 10
0.0
 20
0.0
 30
0.0
  9
$EXTMIN
 10
-8.184
 20
-14.05634
 30
1.000000E+20
  9
$EXTMAX
 10
9.73106
 20
11.51601
 30
-1.000000E+20
  9
$LIMMIN
 10
0.0
 20
0.0
  9
$LIMMAX
 10
0.0
 20
0.0
  9
$ORTHOMODE
 70
     0
  9
$REGENMODE
 70
     1
  9
$FILLMODE
 70
     1
  9
$QTEXTMODE
 70
     0
  9
$MIRRTEXT
 70
     1
  9
$LTSCALE
 40
1.0
  9
$ATTMODE
 70
     1
  9
$TEXTSIZE
 40
0.2
  9
$TRACEWID
 40
0.05
  9
$TEXTSTYLE
  7
Standard
  9
$CLAYER
  8
0
  9
$CELTYPE
  6
Continuous
  9
$CECOLOR
 62
   256
  9
$CELTSCALE
 40
1.0
  9
$DISPSILH
 70
     0
  9
$DIMSCALE
 40
1.0
  9
$DIMASZ
 40
0.18
  9
$DIMEXO
 40
0.0625
  9
$DIMDLI
 40
0.38
  9
$DIMRND
 40
0.0
  9
$DIMDLE
 40
0.0
  9
$DIMEXE
 40
0.18
  9
$DIMTP
 40
0.0
  9
$DIMTM
 40
0.0
  9
$DIMTXT
 40
0.18
  9
$DIMCEN
 40
0.09
  9
$DIMTSZ
 40
0.0
  9
$DIMTOL
 70
     0
  9
$DIMLIM
 70
     0
  9
$DIMTIH
 70
     1
  9
$DIMTOH
 70
     1
  9
$DIMSE1
 70
     0
  9
$DIMSE2
 70
     0
  9
$DIMTAD
 70
     0
  9
$DIMZIN
 70
     0
  9
$DIMBLK
  1

  9
$DIMASO
 70
     1
  9
$DIMSHO
 70
     1
  9
$DIMPOST
  1

  9
$DIMAPOST
  1

  9
$DIMALT
 70
     0
  9
$DIMALTD
 70
     2
  9
$DIMALTF
 40
25.4
  9
$DIMLFAC
 40
1.0
  9
$DIMTOFL
 70
     0
  9
$DIMTVP
 40
0.0
  9
$DIMTIX
 70
     0
  9
$DIMSOXD
 70
     0
  9
$DIMSAH
 70
     0
  9
$DIMBLK1
  1

  9
$DIMBLK2
  1

  9
$DIMSTYLE
  2
Standard
  9
$DIMCLRD
 70
     0
  9
$DIMCLRE
 70
     0
  9
$DIMCLRT
 70
     0
  9
$DIMTFAC
 40
1.0
  9
$DIMGAP
 40
0.09
  9
$DIMJUST
 70
     0
  9
$DIMSD1
 70
     0
  9
$DIMSD2
 70
     0
  9
$DIMTOLJ
 70
     1
  9
$DIMTZIN
 70
     0
  9
$DIMALTZ
 70
     0
  9
$DIMALTTZ
 70
     0
  9
$DIMUPT
 70
     0
  9
$DIMDEC
 70
     4
  9
$DIMTDEC
 70
     4
  9
$DIMALTU
 70
     2
  9
$DIMALTTD
 70
     2
  9
$DIMTXSTY
  7
Standard
  9
$DIMAUNIT
 70
     0
  9
$DIMADEC
 70
     0
  9
$DIMALTRND
 40
0.0
  9
$DIMAZIN
 70
     0
  9
$DIMDSEP
 70
     0
  9
$DIMATFIT
 70
     3
  9
$DIMFRAC
 70
     0
  9
$DIMLDRBLK
  1

  9
$DIMLUNIT
 70
     2
  9
$DIMLWD
 70
     0
  9
$DIMLWE
 70
     0
  9
$DIMTMOVE
 70
     0
  9
$LUNITS
 70
     2
  9
$LUPREC
 70
     4
  9
$SKETCHINC
 40
0.1
  9
$FILLETRAD
 40
0.0
  9
$AUNITS
 70
     0
  9
$AUPREC
 70
     0
  9
$MENU
  1
acad
  9
$ELEVATION
 40
0.0
  9
$PELEVATION
 40
0.0
  9
$THICKNESS
 40
0.0
  9
$LIMCHECK
 70
     0
  9
$CHAMFERA
 40
0.0
  9
$CHAMFERB
 40
0.0
  9
$CHAMFERC
 40
0.0
  9
$CHAMFERD
 40
0.0
  9
$SKPOLY
 70
     0
  9
$TDCREATE
 40
0.000000000
  9
$TDUCREATE
 40
0.000000000
  9
$TDUPDATE
 40
0.000000000
  9
$TDUUPDATE
 40
0.000000000
  9
$TDINDWG
 40
0.0000000000
  9
$TDUSRTIMER
 40
0.0000000000
  9
$USRTIMER
 70
     1
  9
$ANGBASE
 50
0.0
  9
$ANGDIR
 70
     0
  9
$PDMODE
 70
     0
  9
$PDSIZE
 40
0.0
  9
$PLINEWID
 40
0.0
  9
$SPLFRAME
 70
     0
  9
$SPLINETYPE
 70
     6
  9
$SPLINESEGS
 70
     8
  9
$HANDSEED
  5
80
  9
$SURFTAB1
 70
     6
  9
$SURFTAB2
 70
     6
  9
$SURFTYPE
 70
     6
  9
$SURFU
 70
     6
  9
$SURFV
 70
     6
  9
$UCSBASE
  2

  9
$UCSNAME
  2

  9
$UCSORG
 10
0.0
 20
0.0
 30
0.0
  9
$UCSXDIR
 10
1.0
 20
0.0
 30
0.0
  9
$UCSYDIR
 10
0.0
 20
1.0
 30
0.0
  9
$UCSORTHOREF
  2

  9
$UCSORTHOVIEW
 70
     0
  9
$UCSORGTOP
 10
0.0
 20
0.0
 30
0.0
  9
$UCSORGBOTTOM
 10
0.0
 20
0.0
 30
0.0
  9
$UCSORGLEFT
 10
0.0
 20
0.0
 30
0.0
  9
$UCSORGRIGHT
 10
0.0
 20
0.0
 30
0.0
  9
$UCSORGFRONT
 10
0.0
 20
0.0
 30
0.0
  9
$UCSORGBACK
 10
0.0
 20
0.0
 30
0.0
  9
$PUCSBASE
  2

  9
$PUCSNAME
  2

  9
$PUCSORG
 10
0.0
 20
0.0
 30
0.0
  9
$PUCSXDIR
 10
1.0
 20
0.0
 30
0.0
  9
$PUCSYDIR
 10
0.0
 20
1.0
 30
0.0
  9
$PUCSORTHOREF
  2

  9
$PUCSORTHOVIEW
 70
     0
  9
$PUCSORGTOP
 10
0.0
 20
0.0
 30
0.0
  9
$PUCSORGBOTTOM
 10
0.0
 20
0.0
 30
0.0
  9
$PUCSORGLEFT
 10
0.0
 20
0.0
 30
0.0
  9
$PUCSORGRIGHT
 10
0.0
 20
0.0
 30
0.0
  9
$PUCSORGFRONT
 10
0.0
 20
0.0
 30
0.0
  9
$PUCSORGBACK
 10
0.0
 20
0.0
 30
0.0
  9
$USERI1
 70
     0
  9
$USERI2
 70
     0
  9
$USERI3
 70
     0
  9
$USERI4
 70
     0
  9
$USERI5
 70
     0
  9
$USERR1
 40
0.0
  9
$USERR2
 40
0.0
  9
$USERR3
 40
0.0
  9
$USERR4
 40
0.0
  9
$USERR5
 40
0.0
  9
$WORLDVIEW
 70
     1
  9
$SHADEDGE
 70
     3
  9
$SHADEDIF
 70
    70
  9
$TILEMODE
 70
     1
  9
$MAXACTVP
 70
    16
  9
$PINSBASE
 10
0.0
 20
0.0
 30
0.0
  9
$PLIMCHECK
 70
     0
  9
$PEXTMIN
 10
1.000000E+20
 20
1.000000E+20
 30
1.000000E+20
  9
$PEXTMAX
 10
-1.000000E+20
 20
-1.000000E+20
 30
-1.000000E+20
  9
$PLIMMIN
 10
0.0
 20
0.0
  9
$PLIMMAX
 10
12.0
 20
9.0
  9
$UNITMODE
 70
     0
  9
$VISRETAIN
 70
     0
  9
$PLINEGEN
 70
     1
  9
$PSLTSCALE
 70
     0
  9
$TREEDEPTH
 70
  3020
  9
$CMLSTYLE
  2
Standard
  9
$CMLJUST
 70
     0
  9
$CMLSCALE
 40
1.0
  9
$PROXYGRAPHICS
 70
     0
  9
$MEASUREMENT
 70
     0
  9
$CELWEIGHT
370
     0
  9
$ENDCAPS
280
     0
  9
$JOINSTYLE
280
     0
  9
$LWDISPLAY
290
     0
  9
$INSUNITS
 70
     5
  9
$HYPERLINKBASE
  1

  9
$XEDIT
290
     1
  9
$CEPSNTYPE
380
     0
  9
$PSTYLEMODE
290
     1
  9
$FINGERPRINTGUID
  2

  9
$VERSIONGUID
  2

  9
$EXTNAMES
290
     1
  9
$PSVPSCALE
 40
0.0
  0
ENDSEC
  0
SECTION
  2
CLASSES
  0
CLASS
  1
LWPOLYLINE
  2
AcDbPolyline
  3
AutoCAD 2000
 90
    32768
280
     0
281
     1
  0
CLASS
  1
IMAGE
  2
AcDbRasterImage
  3
ISM
 90
    32895
280
     0
281
     1
  0
CLASS
  1
OLE2FRAME
  2
AcDbOle2Frame
  3
AutoCAD 2000
 90
    32768
280
     0
281
     1
  0
CLASS
  1
HATCH
  2
AcDbHatch
  3
AutoCAD 2000
 90
    32768
280
     0
281
     1
  0
CLASS
  1
DICTIONARYVAR
  2
AcDbDictionaryVar
  3
AutoCAD 2000
 90
    32768
280
     0
281
     0
  0
CLASS
  1
RASTERVARIABLES
  2
AcDbRasterVariables
  3
ISM
 90
    32768
280
     0
281
     0
  0
CLASS
  1
IMAGEDEF
  2
AcDbRasterImageDef
  3
ISM
 90
    32768
280
     0
281
     0
  0
CLASS
  1
IMAGEDEF_REACTOR
  2
AcDbRasterImageDefReactor
  3
ISM
 90
    32769
280
     0
281
     0
  0
CLASS
  1
IDBUFFER
  2
AcDbIdBuffer
  3
AutoCAD 2000
 90
    32768
280
     0
281
     0
  0
CLASS
  1
SPATIAL_FILTER
  2
AcDbSpatialFilter
  3
AutoCAD 2000
 90
    32768
280
     0
281
     0
  0
CLASS
  1
XRECORD
  2
AcDbXrecord
  3
AutoCAD 2000
 90
    32768
280
     0
281
     0
  0
CLASS
  1
SORTENTSTABLE
  2
AcDbSortentsTable
  3
AutoCAD 2000
 90
    32768
280
     0
281
     0
  0
CLASS
  1
LAYER_INDEX
  2
AcDbLayerIndex
  3
AutoCAD 2000
 90
    32768
280
     0
281
     0
  0
CLASS
  1
SPATIAL_INDEX
  2
AcDbSpatialIndex
  3
AutoCAD 2000
 90
    32768
280
     0
281
     0
  0
CLASS
  1
OBJECT_PTR
  2
CAseDLPNTableRecord
  3
"ASE-LPNTableRecord"
 90
    32769
280
     0
281
     0
  0
CLASS
  1
LAYOUT
  2
AcDbLayout
  3
AutoCAD 2000
 90
        0
280
     0
281
     0
  0
CLASS
  1
PLOTSETTINGS
  2
AcDbPlotSettings
  3
AutoCAD 2000
 90
    32768
280
     0
281
     0
  0
CLASS
  1
ACDBDICTIONARYWDFLT
  2
AcDbDictionaryWithDefault
  3
AutoCAD 2000
 90
        0
280
     0
281
     0
  0
CLASS
  1
ACDBPLACEHOLDER
  2
AcDbPlaceHolder
  3
AutoCAD 2000
 90
        0
280
     0
281
     0
  0
CLASS
  1
VBA_PROJECT
  2
AcDbVbaProject
  3
acadvba
 90
    32768
280
     0
281
     0
  0
CLASS
  1
WIPEOUT
  2
AcDbWipeout
  3
WipeOut|AutoCAD Express Tool|expresstools@autodesk.com
 90
    32895
280
     0
281
     1
  0
CLASS
  1
WIPEOUTVARIABLES
  2
AcDbWipeoutVariables
  3
WipeOut|AutoCAD Express Tool|expresstools@autodesk.com
 90
        0
280
     0
281
     0
  0
CLASS
  1
RTEXT
  2
RText
  3
RText|AutoCAD Express Tool|expresstools@autodesk.com
 90
    32768
280
     0
281
     1
  0
CLASS
  1
ARCALIGNEDTEXT
  2
AcDbArcAlignedText
  3
ATEXT|AutoCAD Express Tool|expresstools@autodesk.com
 90
    32768
280
     0
281
     1
  0
ENDSEC
  0
SECTION
  2
TABLES
  0
TABLE
  2
VPORT
  5
7
100
AcDbSymbolTable
 70
     1
  0
VPORT
  5
15
100
AcDbSymbolTableRecord
100
AcDbViewportTableRecord
  2
*ACTIVE
 70
     0
 10
0.0
 20
0.0
 11
1.0
 21
1.0
 12
6.591288
 22
4.579184
 13
0.0
 23
0.0
 14
1.0
 24
1.0
 15
0.0
 25
0.0
 16
0.0
 26
0.0
 36
1.0
 17
0.0
 27
0.0
 37
0.0
 40
9.158369
 41
0.688564
 42
50.0
 43
0.0
 44
0.0
 50
0.0
 51
0.0
 71
     0
 72
   100
 73
     1
 74
     1
 75
     0
 76
     0
 77
     0
 78
     0
281
     0
 65
     0
110
0.0
120
0.0
130
0.0
111
1.0
121
0.0
131
0.0
112
0.0
122
1.0
132
0.0
345
0
346
0
 79
     0
146
0.0
  0
ENDTAB
  0
TABLE
  2
LTYPE
  5
4
100
AcDbSymbolTable
 70
     3
  0
LTYPE
  5
11
100
AcDbSymbolTableRecord
100
AcDbLinetypeTableRecord
  2
ByBlock
 70
    64
  3

 72
    65
 73
     0
 40
0.0
  0
LTYPE
  5
12
100
AcDbSymbolTableRecord
100
AcDbLinetypeTableRecord
  2
ByLayer
 70
    64
  3

 72
    65
 73
     0
 40
0.0
  0
LTYPE
  5
13
100
AcDbSymbolTableRecord
100
AcDbLinetypeTableRecord
  2
Continuous
 70
    64
  3
Solid line
 72
    65
 73
     0
 40
0.0
  0
ENDTAB
  0
TABLE
  2
LAYER
  5
2
100
AcDbSymbolTable
 70
     2
  0
LAYER
  5
14
100
AcDbSymbolTableRecord
100
AcDbLayerTableRecord
  2
0
 70
     0
 62
     7
  6
Continuous
290
     1
370
    -3
390
1D
  0
LAYER
  5
24
100
AcDbSymbolTableRecord
100
AcDbLayerTableRecord
  2
Plan 1
 70
     0
 62
     7
  6
Continuous
290
     1
370
    -3
390
1F
  0
ENDTAB
  0
TABLE
  2
STYLE
  5
3
100
AcDbSymbolTable
 70
     1
  0
STYLE
  5
17
100
AcDbSymbolTableRecord
100
AcDbTextStyleTableRecord
  2
Standard
 70
     0
 40
0.0
 41
1.0
 50
0.0
 71
     0
 42
0.0
  3
txt
  4

  0
ENDTAB
  0
TABLE
  2
VIEW
  5
5
100
AcDbSymbolTable
 70
     0
  0
ENDTAB
  0
TABLE
  2
UCS
  5
6
100
AcDbSymbolTable
 70
     0
  0
ENDTAB
  0
TABLE
  2
APPID
  5
8
100
AcDbSymbolTable
 70
     1
  0
APPID
  5
16
100
AcDbSymbolTableRecord
100
AcDbRegAppTableRecord
  2
ACAD
 70
     0
  0
ENDTAB
  0
TABLE
  2
DIMSTYLE
  5
9
100
AcDbSymbolTable
 70
     1
100
AcDbDimStyleTable
 71
     0
  0
DIMSTYLE
105
18
100
AcDbSymbolTableRecord
100
AcDbDimStyleTableRecord
  2
Standard
 70
     0
  3

  4

 40
1.0
 41
0.18
 42
0.0625
 43
0.38
 44
0.18
 45
0.0
 46
0.0
 47
0.0
 48
0.0
 71
     0
 72
     0
 73
     1
 74
     1
 75
     0
 76
     0
 77
     0
 78
     0
 79
     0
140
0.18
141
0.09
142
0.0
143
25.4
144
1.0
145
0.0
146
1.0
147
0.09
148
0.0
170
     0
171
     2
172
     0
173
     0
174
     0
175
     0
176
     0
177
     0
178
     0
179
     0
271
     4
272
     4
273
     2
274
     2
275
     0
276
     0
277
     2
278
    46
279
     0
280
     0
281
     0
282
     0
283
     1
284
     0
285
     0
286
     0
288
     0
340
17
341
0
342
0
343
0
344
0
371
    -2
372
    -2
  0
ENDTAB
  0
TABLE
  2
BLOCK_RECORD
  5
1
100
AcDbSymbolTable
 70
     0
  0
BLOCK_RECORD
  5
A
100
AcDbSymbolTableRecord
100
AcDbBlockTableRecord
  2
*MODEL_SPACE
340
20
  0
BLOCK_RECORD
  5
B
100
AcDbSymbolTableRecord
100
AcDbBlockTableRecord
  2
*PAPER_SPACE
340
21
  0
ENDTAB
  0
ENDSEC
  0
SECTION
  2
BLOCKS
  0
BLOCK
  5
D
100
AcDbEntity
  8
0
100
AcDbBlockBegin
  2
*MODEL_SPACE
 70
     0
 10
0.0
 20
0.0
 30
0.0
  3
*MODEL_SPACE
  1

  0
ENDBLK
  5
E
100
AcDbEntity
  8
0
100
AcDbBlockEnd
  0
BLOCK
  5
F
100
AcDbEntity
 67
     1
  8
0
100
AcDbBlockBegin
  2
*PAPER_SPACE
 70
     0
 10
0.0
 20
0.0
 30
0.0
  3
*PAPER_SPACE
  1

  0
ENDBLK
  5
10
100
AcDbEntity
 67
     1
  8
0
100
AcDbBlockEnd
  0
ENDSEC
  0
SECTION
  2
ENTITIES
  0
SPLINE
  5
25
100
AcDbEntity
  8
Plan 1
100
AcDbSpline
210
0.0
220
0.0
230
1.0
 70
     1
 71
     3
 72
    52
 73
    48
 74
     0
 42
0.0000000001
 43
0.0000000001
 40
0.0
 40
0.0
 40
0.0
 40
0.0
 40
0.0833333333333333
 40
0.0833333333333333
 40
0.0833333333333333
 40
0.0833333333333333
 40
0.1666666666666667
 40
0.1666666666666667
 40
0.1666666666666667
 40
0.1666666666666667
 40
0.25
 40
0.25
 40
0.25
 40
0.25
 40
0.3333333333333333
 40
0.3333333333333333
 40
0.3333333333333333
 40
0.3333333333333333
 40
0.4166666666666666
 40
0.4166666666666666
 40
0.4166666666666666
 40
0.4166666666666666
 40
0.4999999999999999
 40
0.4999999999999999
 40
0.4999999999999999
 40
0.4999999999999999
 40
0.5833333333333333
 40
0.5833333333333333
 40
0.5833333333333333
 40
0.5833333333333333
 40
0.6666666666666666
 40
0.6666666666666666
 40
0.6666666666666666
 40
0.6666666666666666
 40
0.75
 40
0.75
 40
0.75
 40
0.75
 40
0.8333333333333334
 40
0.8333333333333334
 40
0.8333333333333334
 40
0.8333333333333334
 40
0.9166666666666667
 40
0.9166666666666667
 40
0.9166666666666667
 40
0.9166666666666667
 40
1.0
 40
1.0
 40
1.0
 40
1.0
 10
9.5482900000000015
 20
-13.964930000000001
 30
0.0
 10
9.5482900000000015
 20
-13.949660000000002
 30
0.0
 10
9.5522000000000009
 20
-13.934760000000001
 30
0.0
 10
9.5600200000000015
 20
-13.920190000000002
 30
0.0
 10
9.5600200000000015
 20
-13.920190000000002
 30
0.0
 10
9.5678800000000006
 20
-13.905670000000001
 30
0.0
 10
9.5790700000000015
 20
-13.894310000000001
 30
0.0
 10
9.5936800000000009
 20
-13.886200000000001
 30
0.0
 10
9.5936800000000009
 20
-13.886200000000001
 30
0.0
 10
9.60825
 20
-13.87809
 30
0.0
 10
9.6234800000000007
 20
-13.874020000000002
 30
0.0
 10
9.6393300000000011
 20
-13.874020000000002
 30
0.0
 10
9.6393300000000011
 20
-13.874020000000002
 30
0.0
 10
9.6550100000000008
 20
-13.874020000000002
 30
0.0
 10
9.6700700000000008
 20
-13.878010000000002
 30
0.0
 10
9.6845200000000009
 20
-13.886030000000002
 30
0.0
 10
9.6845200000000009
 20
-13.886030000000002
 30
0.0
 10
9.6990000000000016
 20
-13.894020000000001
 30
0.0
 10
9.7102400000000006
 20
-13.905250000000001
 30
0.0
 10
9.7182200000000005
 20
-13.91966
 30
0.0
 10
9.7182200000000005
 20
-13.91966
 30
0.0
 10
9.7262500000000003
 20
-13.934100000000001
 30
0.0
 10
9.7302400000000002
 20
-13.949170000000001
 30
0.0
 10
9.7302400000000002
 20
-13.964930000000001
 30
0.0
 10
9.7302400000000002
 20
-13.964930000000001
 30
0.0
 10
9.7302400000000002
 20
-13.980690000000001
 30
0.0
 10
9.7262500000000003
 20
-13.995800000000001
 30
0.0
 10
9.7182200000000005
 20
-14.010200000000001
 30
0.0
 10
9.7182200000000005
 20
-14.010200000000001
 30
0.0
 10
9.7102400000000006
 20
-14.024650000000001
 30
0.0
 10
9.6990000000000016
 20
-14.035890000000002
 30
0.0
 10
9.6845200000000009
 20
-14.04391
 30
0.0
 10
9.6845200000000009
 20
-14.04391
 30
0.0
 10
9.6700700000000008
 20
-14.05198
 30
0.0
 10
9.6550100000000008
 20
-14.05597
 30
0.0
 10
9.6393300000000011
 20
-14.05597
 30
0.0
 10
9.6393300000000011
 20
-14.05597
 30
0.0
 10
9.6234800000000007
 20
-14.05597
 30
0.0
 10
9.60825
 20
-14.051900000000002
 30
0.0
 10
9.5936800000000009
 20
-14.043750000000001
 30
0.0
 10
9.5936800000000009
 20
-14.043750000000001
 30
0.0
 10
9.5790700000000015
 20
-14.035600000000001
 30
0.0
 10
9.5678800000000006
 20
-14.024240000000001
 30
0.0
 10
9.5600200000000015
 20
-14.009670000000002
 30
0.0
 10
9.5600200000000015
 20
-14.009670000000002
 30
0.0
 10
9.5522000000000009
 20
-13.995140000000001
 30
0.0
 10
9.5482900000000015
 20
-13.980200000000002
 30
0.0
 10
9.5482900000000015
 20
-13.964930000000001
 30
0.0
  0
SPLINE
  5
26
100
AcDbEntity
  8
Plan 1
100
AcDbSpline
210
0.0
220
0.0
230
1.0
 70
     1
 71
     3
 72
    52
 73
    48
 74
     0
 42
0.0000000001
 43
0.0000000001
 40
0.0
 40
0.0
 40
0.0
 40
0.0
 40
0.0833333333333333
 40
0.0833333333333333
 40
0.0833333333333333
 40
0.0833333333333333
 40
0.1666666666666667
 40
0.1666666666666667
 40
0.1666666666666667
 40
0.1666666666666667
 40
0.25
 40
0.25
 40
0.25
 40
0.25
 40
0.3333333333333333
 40
0.3333333333333333
 40
0.3333333333333333
 40
0.3333333333333333
 40
0.4166666666666666
 40
0.4166666666666666
 40
0.4166666666666666
 40
0.4166666666666666
 40
0.4999999999999999
 40
0.4999999999999999
 40
0.4999999999999999
 40
0.4999999999999999
 40
0.5833333333333333
 40
0.5833333333333333
 40
0.5833333333333333
 40
0.5833333333333333
 40
0.6666666666666666
 40
0.6666666666666666
 40
0.6666666666666666
 40
0.6666666666666666
 40
0.75
 40
0.75
 40
0.75
 40
0.75
 40
0.8333333333333334
 40
0.8333333333333334
 40
0.8333333333333334
 40
0.8333333333333334
 40
0.9166666666666667
 40
0.9166666666666667
 40
0.9166666666666667
 40
0.9166666666666667
 40
1.0
 40
1.0
 40
1.0
 40
1.0
 10
9.5633500000000016
 20
-13.964930000000001
 30
0.0
 10
9.5633500000000016
 20
-13.977730000000001
 30
0.0
 10
9.5666400000000014
 20
-13.990160000000001
 30
0.0
 10
9.5731900000000003
 20
-14.002260000000001
 30
0.0
 10
9.5731900000000003
 20
-14.002260000000001
 30
0.0
 10
9.5797300000000014
 20
-14.014360000000002
 30
0.0
 10
9.5891200000000012
 20
-14.023830000000002
 30
0.0
 10
9.6012599999999999
 20
-14.030660000000001
 30
0.0
 10
9.6012599999999999
 20
-14.030660000000001
 30
0.0
 10
9.6134400000000007
 20
-14.037490000000002
 30
0.0
 10
9.6261100000000006
 20
-14.040910000000002
 30
0.0
 10
9.6393300000000011
 20
-14.040910000000002
 30
0.0
 10
9.6393300000000011
 20
-14.040910000000002
 30
0.0
 10
9.6524100000000015
 20
-14.040910000000002
 30
0.0
 10
9.6649700000000003
 20
-14.03753
 30
0.0
 10
9.6769800000000004
 20
-14.03082
 30
0.0
 10
9.6769800000000004
 20
-14.03082
 30
0.0
 10
9.6890000000000001
 20
-14.02411
 30
0.0
 10
9.6983900000000016
 20
-14.014730000000002
 30
0.0
 10
9.7050900000000002
 20
-14.002670000000002
 30
0.0
 10
9.7050900000000002
 20
-14.002670000000002
 30
0.0
 10
9.7118000000000002
 20
-13.990610000000002
 30
0.0
 10
9.7151800000000001
 20
-13.978060000000001
 30
0.0
 10
9.7151800000000001
 20
-13.964930000000001
 30
0.0
 10
9.7151800000000001
 20
-13.964930000000001
 30
0.0
 10
9.7151800000000001
 20
-13.951840000000001
 30
0.0
 10
9.7118000000000002
 20
-13.939250000000001
 30
0.0
 10
9.7050900000000002
 20
-13.927190000000001
 30
0.0
 10
9.7050900000000002
 20
-13.927190000000001
 30
0.0
 10
9.6983900000000016
 20
-13.915130000000001
 30
0.0
 10
9.6890000000000001
 20
-13.905790000000001
 30
0.0
 10
9.6769800000000004
 20
-13.899120000000002
 30
0.0
 10
9.6769800000000004
 20
-13.899120000000002
 30
0.0
 10
9.6649700000000003
 20
-13.892450000000002
 30
0.0
 10
9.6524100000000015
 20
-13.889120000000002
 30
0.0
 10
9.6393300000000011
 20
-13.889120000000002
 30
0.0
 10
9.6393300000000011
 20
-13.889120000000002
 30
0.0
 10
9.6261100000000006
 20
-13.889120000000002
 30
0.0
 10
9.6134400000000007
 20
-13.892500000000002
 30
0.0
 10
9.6012599999999999
 20
-13.899290000000001
 30
0.0
 10
9.6012599999999999
 20
-13.899290000000001
 30
0.0
 10
9.5891200000000012
 20
-13.906080000000001
 30
0.0
 10
9.5797300000000014
 20
-13.915540000000002
 30
0.0
 10
9.5731900000000003
 20
-13.927680000000001
 30
0.0
 10
9.5731900000000003
 20
-13.927680000000001
 30
0.0
 10
9.5666400000000014
 20
-13.939830000000001
 30
0.0
 10
9.5633500000000016
 20
-13.952250000000001
 30
0.0
 10
9.5633500000000016
 20
-13.964930000000001
 30
0.0
  0
SPLINE
  5
27
100
AcDbEntity
  8
Plan 1
100
AcDbSpline
210
0.0
220
0.0
230
1.0
 70
     1
 71
     3
 72
    80
 73
    76
 74
     0
 42
0.0000000001
 43
0.0000000001
 40
0.0
 40
0.0
 40
0.0
 40
0.0
 40
0.0526315789473684
 40
0.0526315789473684
 40
0.0526315789473684
 40
0.0526315789473684
 40
0.1052631578947368
 40
0.1052631578947368
 40
0.1052631578947368
 40
0.1052631578947368
 40
0.1578947368421053
 40
0.1578947368421053
 40
0.1578947368421053
 40
0.1578947368421053
 40
0.2105263157894737
 40
0.2105263157894737
 40
0.2105263157894737
 40
0.2105263157894737
 40
0.2631578947368421
 40
0.2631578947368421
 40
0.2631578947368421
 40
0.2631578947368421
 40
0.3157894736842105
 40
0.3157894736842105
 40
0.3157894736842105
 40
0.3157894736842105
 40
0.3684210526315789
 40
0.3684210526315789
 40
0.3684210526315789
 40
0.3684210526315789
 40
0.4210526315789474
 40
0.4210526315789474
 40
0.4210526315789474
 40
0.4210526315789474
 40
0.4736842105263158
 40
0.4736842105263158
 40
0.4736842105263158
 40
0.4736842105263158
 40
0.5263157894736842
 40
0.5263157894736842
 40
0.5263157894736842
 40
0.5263157894736842
 40
0.5789473684210527
 40
0.5789473684210527
 40
0.5789473684210527
 40
0.5789473684210527
 40
0.631578947368421
 40
0.631578947368421
 40
0.631578947368421
 40
0.631578947368421
 40
0.6842105263157894
 40
0.6842105263157894
 40
0.6842105263157894
 40
0.6842105263157894
 40
0.7368421052631577
 40
0.7368421052631577
 40
0.7368421052631577
 40
0.7368421052631577
 40
0.7894736842105261
 40
0.7894736842105261
 40
0.7894736842105261
 40
0.7894736842105261
 40
0.8421052631578945
 40
0.8421052631578945
 40
0.8421052631578945
 40
0.8421052631578945
 40
0.8947368421052628
 40
0.8947368421052628
 40
0.8947368421052628
 40
0.8947368421052628
 40
0.9473684210526312
 40
0.9473684210526312
 40
0.9473684210526312
 40
0.9473684210526312
 40
1.0
 40
1.0
 40
1.0
 40
1.0
 10
9.6540200000000009
 20
-13.935750000000001
 30
0.0
 10
9.6540200000000009
 20
-13.935750000000001
 30
0.0
 10
9.6583800000000011
 20
-13.920930000000002
 30
0.0
 10
9.6583800000000011
 20
-13.920930000000002
 30
0.0
 10
9.6583800000000011
 20
-13.920930000000002
 30
0.0
 10
9.6684200000000011
 20
-13.923360000000001
 30
0.0
 10
9.6764500000000009
 20
-13.928470000000001
 30
0.0
 10
9.6824200000000005
 20
-13.936290000000001
 30
0.0
 10
9.6824200000000005
 20
-13.936290000000001
 30
0.0
 10
9.6884300000000003
 20
-13.94415
 30
0.0
 10
9.6913900000000002
 20
-13.953650000000001
 30
0.0
 10
9.6913900000000002
 20
-13.964810000000002
 30
0.0
 10
9.6913900000000002
 20
-13.964810000000002
 30
0.0
 10
9.6913900000000002
 20
-13.97897
 30
0.0
 10
9.6868200000000009
 20
-13.990450000000001
 30
0.0
 10
9.6776400000000002
 20
-13.999300000000002
 30
0.0
 10
9.6776400000000002
 20
-13.999300000000002
 30
0.0
 10
9.6685100000000013
 20
-14.008150000000001
 30
0.0
 10
9.6557900000000014
 20
-14.012590000000001
 30
0.0
 10
9.6395700000000009
 20
-14.012590000000001
 30
0.0
 10
9.6395700000000009
 20
-14.012590000000001
 30
0.0
 10
9.6289500000000015
 20
-14.012590000000001
 30
0.0
 10
9.6197400000000002
 20
-14.010570000000001
 30
0.0
 10
9.6118700000000015
 20
-14.006540000000001
 30
0.0
 10
9.6118700000000015
 20
-14.006540000000001
 30
0.0
 10
9.6040500000000009
 20
-14.002510000000001
 30
0.0
 10
9.5981300000000012
 20
-13.996790000000001
 30
0.0
 10
9.5941800000000015
 20
-13.989380000000001
 30
0.0
 10
9.5941800000000015
 20
-13.989380000000001
 30
0.0
 10
9.5901900000000015
 20
-13.981930000000002
 30
0.0
 10
9.5882100000000001
 20
-13.973410000000001
 30
0.0
 10
9.5882100000000001
 20
-13.96386
 30
0.0
 10
9.5882100000000001
 20
-13.96386
 30
0.0
 10
9.5882100000000001
 20
-13.95316
 30
0.0
 10
9.5907600000000013
 20
-13.944270000000001
 30
0.0
 10
9.5958600000000001
 20
-13.937190000000001
 30
0.0
 10
9.5958600000000001
 20
-13.937190000000001
 30
0.0
 10
9.6009700000000002
 20
-13.930150000000001
 30
0.0
 10
9.6078800000000015
 20
-13.925300000000002
 30
0.0
 10
9.6166499999999999
 20
-13.922750000000001
 30
0.0
 10
9.6166499999999999
 20
-13.922750000000001
 30
0.0
 10
9.6166499999999999
 20
-13.922750000000001
 30
0.0
 10
9.6201500000000006
 20
-13.937110000000001
 30
0.0
 10
9.6201500000000006
 20
-13.937110000000001
 30
0.0
 10
9.6201500000000006
 20
-13.937110000000001
 30
0.0
 10
9.6141800000000011
 20
-13.939500000000001
 30
0.0
 10
9.6096500000000002
 20
-13.943080000000002
 30
0.0
 10
9.606440000000001
 20
-13.947770000000002
 30
0.0
 10
9.606440000000001
 20
-13.947770000000002
 30
0.0
 10
9.6032700000000002
 20
-13.95246
 30
0.0
 10
9.6017100000000006
 20
-13.957980000000001
 30
0.0
 10
9.6017100000000006
 20
-13.964350000000001
 30
0.0
 10
9.6017100000000006
 20
-13.964350000000001
 30
0.0
 10
9.6017100000000006
 20
-13.97357
 30
0.0
 10
9.6050000000000004
 20
-13.981190000000002
 30
0.0
 10
9.6115900000000014
 20
-13.987200000000001
 30
0.0
 10
9.6115900000000014
 20
-13.987200000000001
 30
0.0
 10
9.618170000000001
 20
-13.993160000000001
 30
0.0
 10
9.6276400000000013
 20
-13.996170000000001
 30
0.0
 10
9.6399000000000008
 20
-13.996170000000001
 30
0.0
 10
9.6399000000000008
 20
-13.996170000000001
 30
0.0
 10
9.6522100000000002
 20
-13.996170000000001
 30
0.0
 10
9.6615100000000016
 20
-13.99333
 30
0.0
 10
9.6678500000000014
 20
-13.987690000000001
 30
0.0
 10
9.6678500000000014
 20
-13.987690000000001
 30
0.0
 10
9.6741400000000013
 20
-13.982010000000001
 30
0.0
 10
9.6773100000000003
 20
-13.974690000000001
 30
0.0
 10
9.6773100000000003
 20
-13.965670000000001
 30
0.0
 10
9.6773100000000003
 20
-13.965670000000001
 30
0.0
 10
9.6773100000000003
 20
-13.958430000000002
 30
0.0
 10
9.6752100000000016
 20
-13.952090000000002
 30
0.0
 10
9.6710200000000004
 20
-13.946620000000001
 30
0.0
 10
9.6710200000000004
 20
-13.946620000000001
 30
0.0
 10
9.6668600000000016
 20
-13.941140000000001
 30
0.0
 10
9.6611800000000017
 20
-13.937520000000001
 30
0.0
 10
9.6540200000000009
 20
-13.935750000000001
 30
0.0
  0
SPLINE
  5
28
100
AcDbEntity
  8
Plan 1
100
AcDbSpline
210
0.0
220
0.0
230
1.0
 70
     1
 71
     3
 72
    48
 73
    44
 74
     0
 42
0.0000000001
 43
0.0000000001
 40
0.0
 40
0.0
 40
0.0
 40
0.0
 40
0.0909090909090909
 40
0.0909090909090909
 40
0.0909090909090909
 40
0.0909090909090909
 40
0.1818181818181818
 40
0.1818181818181818
 40
0.1818181818181818
 40
0.1818181818181818
 40
0.2727272727272727
 40
0.2727272727272727
 40
0.2727272727272727
 40
0.2727272727272727
 40
0.3636363636363637
 40
0.3636363636363637
 40
0.3636363636363637
 40
0.3636363636363637
 40
0.4545454545454546
 40
0.4545454545454546
 40
0.4545454545454546
 40
0.4545454545454546
 40
0.5454545454545455
 40
0.5454545454545455
 40
0.5454545454545455
 40
0.5454545454545455
 40
0.6363636363636365
 40
0.6363636363636365
 40
0.6363636363636365
 40
0.6363636363636365
 40
0.7272727272727274
 40
0.7272727272727274
 40
0.7272727272727274
 40
0.7272727272727274
 40
0.8181818181818183
 40
0.8181818181818183
 40
0.8181818181818183
 40
0.8181818181818183
 40
0.9090909090909093
 40
0.9090909090909093
 40
0.9090909090909093
 40
0.9090909090909093
 40
1.0
 40
1.0
 40
1.0
 40
1.0
 10
9.728060000000001
 20
-13.786720000000001
 30
0.0
 10
9.728060000000001
 20
-13.786720000000001
 30
0.0
 10
9.5512900000000016
 20
-13.786720000000001
 30
0.0
 10
9.5512900000000016
 20
-13.786720000000001
 30
0.0
 10
9.5512900000000016
 20
-13.786720000000001
 30
0.0
 10
9.5512900000000016
 20
-13.786720000000001
 30
0.0
 10
9.5512900000000016
 20
-13.720050000000001
 30
0.0
 10
9.5512900000000016
 20
-13.720050000000001
 30
0.0
 10
9.5512900000000016
 20
-13.720050000000001
 30
0.0
 10
9.5512900000000016
 20
-13.708320000000001
 30
0.0
 10
9.551870000000001
 20
-13.699350000000001
 30
0.0
 10
9.5529800000000016
 20
-13.693180000000002
 30
0.0
 10
9.5529800000000016
 20
-13.693180000000002
 30
0.0
 10
9.5544200000000004
 20
-13.68449
 30
0.0
 10
9.5571800000000007
 20
-13.677210000000001
 30
0.0
 10
9.5612500000000011
 20
-13.671320000000001
 30
0.0
 10
9.5612500000000011
 20
-13.671320000000001
 30
0.0
 10
9.565290000000001
 20
-13.665480000000001
 30
0.0
 10
9.5710100000000011
 20
-13.660740000000001
 30
0.0
 10
9.5782900000000009
 20
-13.657160000000001
 30
0.0
 10
9.5782900000000009
 20
-13.657160000000001
 30
0.0
 10
9.5856200000000005
 20
-13.653580000000002
 30
0.0
 10
9.5936400000000006
 20
-13.651810000000001
 30
0.0
 10
9.6024100000000008
 20
-13.651810000000001
 30
0.0
 10
9.6024100000000008
 20
-13.651810000000001
 30
0.0
 10
9.6174300000000006
 20
-13.651810000000001
 30
0.0
 10
9.6301900000000007
 20
-13.656590000000001
 30
0.0
 10
9.6406000000000009
 20
-13.66614
 30
0.0
 10
9.6406000000000009
 20
-13.66614
 30
0.0
 10
9.6509700000000009
 20
-13.675720000000002
 30
0.0
 10
9.6562000000000001
 20
-13.693010000000001
 30
0.0
 10
9.6562000000000001
 20
-13.71799
 30
0.0
 10
9.6562000000000001
 20
-13.71799
 30
0.0
 10
9.6562000000000001
 20
-13.71799
 30
0.0
 10
9.6562000000000001
 20
-13.763350000000001
 30
0.0
 10
9.6562000000000001
 20
-13.763350000000001
 30
0.0
 10
9.6562000000000001
 20
-13.763350000000001
 30
0.0
 10
9.6562000000000001
 20
-13.763350000000001
 30
0.0
 10
9.728060000000001
 20
-13.763350000000001
 30
0.0
 10
9.728060000000001
 20
-13.763350000000001
 30
0.0
 10
9.728060000000001
 20
-13.763350000000001
 30
0.0
 10
9.728060000000001
 20
-13.763350000000001
 30
0.0
 10
9.728060000000001
 20
-13.786720000000001
 30
0.0
 10
9.728060000000001
 20
-13.786720000000001
 30
0.0
  0
SPLINE
  5
29
100
AcDbEntity
  8
Plan 1
100
AcDbSpline
210
0.0
220
0.0
230
1.0
 70
     1
 71
     3
 72
    36
 73
    32
 74
     0
 42
0.0000000001
 43
0.0000000001
 40
0.0
 40
0.0
 40
0.0
 40
0.0
 40
0.125
 40
0.125
 40
0.125
 40
0.125
 40
0.25
 40
0.25
 40
0.25
 40
0.25
 40
0.375
 40
0.375
 40
0.375
 40
0.375
 40
0.5
 40
0.5
 40
0.5
 40
0.5
 40
0.625
 40
0.625
 40
0.625
 40
0.625
 40
0.75
 40
0.75
 40
0.75
 40
0.75
 40
0.875
 40
0.875
 40
0.875
 40
0.875
 40
1.0
 40
1.0
 40
1.0
 40
1.0
 10
9.6353300000000015
 20
-13.763350000000001
 30
0.0
 10
9.6353300000000015
 20
-13.763350000000001
 30
0.0
 10
9.6353300000000015
 20
-13.717620000000002
 30
0.0
 10
9.6353300000000015
 20
-13.717620000000002
 30
0.0
 10
9.6353300000000015
 20
-13.717620000000002
 30
0.0
 10
9.6353300000000015
 20
-13.702520000000002
 30
0.0
 10
9.6325400000000005
 20
-13.691780000000001
 30
0.0
 10
9.6269000000000009
 20
-13.685440000000002
 30
0.0
 10
9.6269000000000009
 20
-13.685440000000002
 30
0.0
 10
9.6212600000000013
 20
-13.679100000000002
 30
0.0
 10
9.6133600000000001
 20
-13.675930000000001
 30
0.0
 10
9.6031500000000012
 20
-13.675930000000001
 30
0.0
 10
9.6031500000000012
 20
-13.675930000000001
 30
0.0
 10
9.595740000000001
 20
-13.675930000000001
 30
0.0
 10
9.5894000000000013
 20
-13.67778
 30
0.0
 10
9.5841400000000014
 20
-13.68153
 30
0.0
 10
9.5841400000000014
 20
-13.68153
 30
0.0
 10
9.5788700000000002
 20
-13.685270000000001
 30
0.0
 10
9.5754100000000015
 20
-13.690170000000002
 30
0.0
 10
9.5737200000000016
 20
-13.696300000000001
 30
0.0
 10
9.5737200000000016
 20
-13.696300000000001
 30
0.0
 10
9.5726900000000015
 20
-13.70025
 30
0.0
 10
9.5721600000000002
 20
-13.707500000000001
 30
0.0
 10
9.5721600000000002
 20
-13.718120000000001
 30
0.0
 10
9.5721600000000002
 20
-13.718120000000001
 30
0.0
 10
9.5721600000000002
 20
-13.718120000000001
 30
0.0
 10
9.5721600000000002
 20
-13.763350000000001
 30
0.0
 10
9.5721600000000002
 20
-13.763350000000001
 30
0.0
 10
9.5721600000000002
 20
-13.763350000000001
 30
0.0
 10
9.5721600000000002
 20
-13.763350000000001
 30
0.0
 10
9.6353300000000015
 20
-13.763350000000001
 30
0.0
 10
9.6353300000000015
 20
-13.763350000000001
 30
0.0
  0
SPLINE
  5
2A
100
AcDbEntity
  8
Plan 1
100
AcDbSpline
210
0.0
220
0.0
230
1.0
 70
     1
 71
     3
 72
    20
 73
    16
 74
     0
 42
0.0000000001
 43
0.0000000001
 40
0.0
 40
0.0
 40
0.0
 40
0.0
 40
0.25
 40
0.25
 40
0.25
 40
0.25
 40
0.5
 40
0.5
 40
0.5
 40
0.5
 40
0.75
 40
0.75
 40
0.75
 40
0.75
 40
1.0
 40
1.0
 40
1.0
 40
1.0
 10
9.5762700000000009
 20
-13.624690000000001
 30
0.0
 10
9.5762700000000009
 20
-13.624690000000001
 30
0.0
 10
9.5512900000000016
 20
-13.624690000000001
 30
0.0
 10
9.5512900000000016
 20
-13.624690000000001
 30
0.0
 10
9.5512900000000016
 20
-13.624690000000001
 30
0.0
 10
9.5512900000000016
 20
-13.624690000000001
 30
0.0
 10
9.5512900000000016
 20
-13.602960000000001
 30
0.0
 10
9.5512900000000016
 20
-13.602960000000001
 30
0.0
 10
9.5512900000000016
 20
-13.602960000000001
 30
0.0
 10
9.5512900000000016
 20
-13.602960000000001
 30
0.0
 10
9.5762700000000009
 20
-13.602960000000001
 30
0.0
 10
9.5762700000000009
 20
-13.602960000000001
 30
0.0
 10
9.5762700000000009
 20
-13.602960000000001
 30
0.0
 10
9.5762700000000009
 20
-13.602960000000001
 30
0.0
 10
9.5762700000000009
 20
-13.624690000000001
 30
0.0
 10
9.5762700000000009
 20
-13.624690000000001
 30
0.0
  0
SPLINE
  5
2B
100
AcDbEntity
  8
Plan 1
100
AcDbSpline
210
0.0
220
0.0
230
1.0
 70
     1
 71
     3
 72
    20
 73
    16
 74
     0
 42
0.0000000001
 43
0.0000000001
 40
0.0
 40
0.0
 40
0.0
 40
0.0
 40
0.25
 40
0.25
 40
0.25
 40
0.25
 40
0.5
 40
0.5
 40
0.5
 40
0.5
 40
0.75
 40
0.75
 40
0.75
 40
0.75
 40
1.0
 40
1.0
 40
1.0
 40
1.0
 10
9.728060000000001
 20
-13.624690000000001
 30
0.0
 10
9.728060000000001
 20
-13.624690000000001
 30
0.0
 10
9.6000200000000007
 20
-13.624690000000001
 30
0.0
 10
9.6000200000000007
 20
-13.624690000000001
 30
0.0
 10
9.6000200000000007
 20
-13.624690000000001
 30
0.0
 10
9.6000200000000007
 20
-13.624690000000001
 30
0.0
 10
9.6000200000000007
 20
-13.602960000000001
 30
0.0
 10
9.6000200000000007
 20
-13.602960000000001
 30
0.0
 10
9.6000200000000007
 20
-13.602960000000001
 30
0.0
 10
9.6000200000000007
 20
-13.602960000000001
 30
0.0
 10
9.728060000000001
 20
-13.602960000000001
 30
0.0
 10
9.728060000000001
 20
-13.602960000000001
 30
0.0
 10
9.728060000000001
 20
-13.602960000000001
 30
0.0
 10
9.728060000000001
 20
-13.602960000000001
 30
0.0
 10
9.728060000000001
 20
-13.624690000000001
 30
0.0
 10
9.728060000000001
 20
-13.624690000000001
 30
0.0
  0
SPLINE
  5
2C
100
AcDbEntity
  8
Plan 1
100
AcDbSpline
210
0.0
220
0.0
230
1.0
 70
     1
 71
     3
 72
    64
 73
    60
 74
     0
 42
0.0000000001
 43
0.0000000001
 40
0.0
 40
0.0
 40
0.0
 40
0.0
 40
0.0666666666666667
 40
0.0666666666666667
 40
0.0666666666666667
 40
0.0666666666666667
 40
0.1333333333333333
 40
0.1333333333333333
 40
0.1333333333333333
 40
0.1333333333333333
 40
0.2
 40
0.2
 40
0.2
 40
0.2
 40
0.2666666666666667
 40
0.2666666666666667
 40
0.2666666666666667
 40
0.2666666666666667
 40
0.3333333333333333
 40
0.3333333333333333
 40
0.3333333333333333
 40
0.3333333333333333
 40
0.4
 40
0.4
 40
0.4
 40
0.4
 40
0.4666666666666666
 40
0.4666666666666666
 40
0.4666666666666666
 40
0.4666666666666666
 40
0.5333333333333333
 40
0.5333333333333333
 40
0.5333333333333333
 40
0.5333333333333333
 40
0.6
 40
0.6
 40
0.6
 40
0.6
 40
0.6666666666666666
 40
0.6666666666666666
 40
0.6666666666666666
 40
0.6666666666666666
 40
0.7333333333333333
 40
0.7333333333333333
 40
0.7333333333333333
 40
0.7333333333333333
 40
0.7999999999999999
 40
0.7999999999999999
 40
0.7999999999999999
 40
0.7999999999999999
 40
0.8666666666666666
 40
0.8666666666666666
 40
0.8666666666666666
 40
0.8666666666666666
 40
0.9333333333333332
 40
0.9333333333333332
 40
0.9333333333333332
 40
0.9333333333333332
 40
1.0
 40
1.0
 40
1.0
 40
1.0
 10
9.6868200000000009
 20
-13.482290000000001
 30
0.0
 10
9.6868200000000009
 20
-13.482290000000001
 30
0.0
 10
9.6895800000000012
 20
-13.459860000000001
 30
0.0
 10
9.6895800000000012
 20
-13.459860000000001
 30
0.0
 10
9.6895800000000012
 20
-13.459860000000001
 30
0.0
 10
9.7027100000000015
 20
-13.463400000000002
 30
0.0
 10
9.7128700000000006
 20
-13.469940000000001
 30
0.0
 10
9.7201200000000014
 20
-13.479490000000002
 30
0.0
 10
9.7201200000000014
 20
-13.479490000000002
 30
0.0
 10
9.7273200000000006
 20
-13.489080000000001
 30
0.0
 10
9.7309400000000004
 20
-13.501300000000001
 30
0.0
 10
9.7309400000000004
 20
-13.516160000000001
 30
0.0
 10
9.7309400000000004
 20
-13.516160000000001
 30
0.0
 10
9.7309400000000004
 20
-13.534890000000001
 30
0.0
 10
9.7251799999999999
 20
-13.549750000000001
 30
0.0
 10
9.7136600000000008
 20
-13.560690000000001
 30
0.0
 10
9.7136600000000008
 20
-13.560690000000001
 30
0.0
 10
9.7021300000000004
 20
-13.571680000000001
 30
0.0
 10
9.6859600000000015
 20
-13.577160000000001
 30
0.0
 10
9.6651300000000013
 20
-13.577160000000001
 30
0.0
 10
9.6651300000000013
 20
-13.577160000000001
 30
0.0
 10
9.6435700000000004
 20
-13.577160000000001
 30
0.0
 10
9.6268600000000006
 20
-13.571600000000002
 30
0.0
 10
9.61496
 20
-13.560530000000002
 30
0.0
 10
9.61496
 20
-13.560530000000002
 30
0.0
 10
9.6030700000000007
 20
-13.549420000000001
 30
0.0
 10
9.5971000000000011
 20
-13.535050000000002
 30
0.0
 10
9.5971000000000011
 20
-13.51735
 30
0.0
 10
9.5971000000000011
 20
-13.51735
 30
0.0
 10
9.5971000000000011
 20
-13.500230000000002
 30
0.0
 10
9.6029400000000003
 20
-13.48624
 30
0.0
 10
9.6145900000000015
 20
-13.475420000000002
 30
0.0
 10
9.6145900000000015
 20
-13.475420000000002
 30
0.0
 10
9.626240000000001
 20
-13.464550000000001
 30
0.0
 10
9.6426600000000011
 20
-13.45912
 30
0.0
 10
9.6637700000000013
 20
-13.45912
 30
0.0
 10
9.6637700000000013
 20
-13.45912
 30
0.0
 10
9.6650900000000011
 20
-13.45912
 30
0.0
 10
9.6670200000000008
 20
-13.459160000000001
 30
0.0
 10
9.6695800000000016
 20
-13.459240000000001
 30
0.0
 10
9.6695800000000016
 20
-13.459240000000001
 30
0.0
 10
9.6695800000000016
 20
-13.459240000000001
 30
0.0
 10
9.6695800000000016
 20
-13.554730000000001
 30
0.0
 10
9.6695800000000016
 20
-13.554730000000001
 30
0.0
 10
9.6695800000000016
 20
-13.554730000000001
 30
0.0
 10
9.6836500000000001
 20
-13.553940000000001
 30
0.0
 10
9.6944400000000002
 20
-13.549950000000001
 30
0.0
 10
9.7018800000000009
 20
-13.542790000000002
 30
0.0
 10
9.7018800000000009
 20
-13.542790000000002
 30
0.0
 10
9.7093700000000016
 20
-13.535630000000001
 30
0.0
 10
9.71312
 20
-13.526740000000002
 30
0.0
 10
9.71312
 20
-13.51604
 30
0.0
 10
9.71312
 20
-13.51604
 30
0.0
 10
9.71312
 20
-13.508090000000001
 30
0.0
 10
9.7110200000000013
 20
-13.501300000000001
 30
0.0
 10
9.7068200000000004
 20
-13.49567
 30
0.0
 10
9.7068200000000004
 20
-13.49567
 30
0.0
 10
9.7026700000000012
 20
-13.490030000000001
 30
0.0
 10
9.6960000000000015
 20
-13.485580000000001
 30
0.0
 10
9.6868200000000009
 20
-13.482290000000001
 30
0.0
  0
SPLINE
  5
2D
100
AcDbEntity
  8
Plan 1
100
AcDbSpline
210
0.0
220
0.0
230
1.0
 70
     1
 71
     3
 72
    24
 73
    20
 74
     0
 42
0.0000000001
 43
0.0000000001
 40
0.0
 40
0.0
 40
0.0
 40
0.0
 40
0.2
 40
0.2
 40
0.2
 40
0.2
 40
0.4
 40
0.4
 40
0.4
 40
0.4
 40
0.6000000000000001
 40
0.6000000000000001
 40
0.6000000000000001
 40
0.6000000000000001
 40
0.8
 40
0.8
 40
0.8
 40
0.8
 40
1.0
 40
1.0
 40
1.0
 40
1.0
 10
9.6517600000000012
 20
-13.55353
 30
0.0
 10
9.6517600000000012
 20
-13.55353
 30
0.0
 10
9.6517600000000012
 20
-13.482040000000001
 30
0.0
 10
9.6517600000000012
 20
-13.482040000000001
 30
0.0
 10
9.6517600000000012
 20
-13.482040000000001
 30
0.0
 10
9.6409700000000011
 20
-13.482990000000001
 30
0.0
 10
9.6328600000000009
 20
-13.485750000000001
 30
0.0
 10
9.6275100000000009
 20
-13.49023
 30
0.0
 10
9.6275100000000009
 20
-13.49023
 30
0.0
 10
9.6191600000000008
 20
-13.497150000000001
 30
0.0
 10
9.61496
 20
-13.506120000000001
 30
0.0
 10
9.61496
 20
-13.517110000000001
 30
0.0
 10
9.61496
 20
-13.517110000000001
 30
0.0
 10
9.61496
 20
-13.527070000000002
 30
0.0
 10
9.6183000000000014
 20
-13.53546
 30
0.0
 10
9.6249600000000015
 20
-13.542250000000001
 30
0.0
 10
9.6249600000000015
 20
-13.542250000000001
 30
0.0
 10
9.6316300000000012
 20
-13.549050000000001
 30
0.0
 10
9.6405600000000007
 20
-13.552790000000002
 30
0.0
 10
9.6517600000000012
 20
-13.55353
 30
0.0
  0
SPLINE
  5
2E
100
AcDbEntity
  8
Plan 1
100
AcDbSpline
210
0.0
220
0.0
230
1.0
 70
     1
 71
     3
 72
    56
 73
    52
 74
     0
 42
0.0000000001
 43
0.0000000001
 40
0.0
 40
0.0
 40
0.0
 40
0.0
 40
0.0769230769230769
 40
0.0769230769230769
 40
0.0769230769230769
 40
0.0769230769230769
 40
0.1538461538461539
 40
0.1538461538461539
 40
0.1538461538461539
 40
0.1538461538461539
 40
0.2307692307692308
 40
0.2307692307692308
 40
0.2307692307692308
 40
0.2307692307692308
 40
0.3076923076923077
 40
0.3076923076923077
 40
0.3076923076923077
 40
0.3076923076923077
 40
0.3846153846153846
 40
0.3846153846153846
 40
0.3846153846153846
 40
0.3846153846153846
 40
0.4615384615384616
 40
0.4615384615384616
 40
0.4615384615384616
 40
0.4615384615384616
 40
0.5384615384615386
 40
0.5384615384615386
 40
0.5384615384615386
 40
0.5384615384615386
 40
0.6153846153846154
 40
0.6153846153846154
 40
0.6153846153846154
 40
0.6153846153846154
 40
0.6923076923076923
 40
0.6923076923076923
 40
0.6923076923076923
 40
0.6923076923076923
 40
0.7692307692307692
 40
0.7692307692307692
 40
0.7692307692307692
 40
0.7692307692307692
 40
0.846153846153846
 40
0.846153846153846
 40
0.846153846153846
 40
0.846153846153846
 40
0.9230769230769229
 40
0.9230769230769229
 40
0.9230769230769229
 40
0.9230769230769229
 40
1.0
 40
1.0
 40
1.0
 40
1.0
 10
9.728060000000001
 20
-13.432820000000001
 30
0.0
 10
9.728060000000001
 20
-13.432820000000001
 30
0.0
 10
9.6000200000000007
 20
-13.432820000000001
 30
0.0
 10
9.6000200000000007
 20
-13.432820000000001
 30
0.0
 10
9.6000200000000007
 20
-13.432820000000001
 30
0.0
 10
9.6000200000000007
 20
-13.432820000000001
 30
0.0
 10
9.6000200000000007
 20
-13.413310000000001
 30
0.0
 10
9.6000200000000007
 20
-13.413310000000001
 30
0.0
 10
9.6000200000000007
 20
-13.413310000000001
 30
0.0
 10
9.6000200000000007
 20
-13.413310000000001
 30
0.0
 10
9.6194100000000002
 20
-13.413310000000001
 30
0.0
 10
9.6194100000000002
 20
-13.413310000000001
 30
0.0
 10
9.6194100000000002
 20
-13.413310000000001
 30
0.0
 10
9.6103500000000004
 20
-13.408330000000001
 30
0.0
 10
9.6043400000000005
 20
-13.403720000000002
 30
0.0
 10
9.6014600000000012
 20
-13.399480000000001
 30
0.0
 10
9.6014600000000012
 20
-13.399480000000001
 30
0.0
 10
9.5985800000000001
 20
-13.395280000000001
 30
0.0
 10
9.5971000000000011
 20
-13.390630000000002
 30
0.0
 10
9.5971000000000011
 20
-13.385570000000001
 30
0.0
 10
9.5971000000000011
 20
-13.385570000000001
 30
0.0
 10
9.5971000000000011
 20
-13.378250000000001
 30
0.0
 10
9.5994500000000009
 20
-13.370840000000001
 30
0.0
 10
9.6041000000000007
 20
-13.36326
 30
0.0
 10
9.6041000000000007
 20
-13.36326
 30
0.0
 10
9.6041000000000007
 20
-13.36326
 30
0.0
 10
9.6242600000000014
 20
-13.370750000000001
 30
0.0
 10
9.6242600000000014
 20
-13.370750000000001
 30
0.0
 10
9.6242600000000014
 20
-13.370750000000001
 30
0.0
 10
9.6210900000000006
 20
-13.37602
 30
0.0
 10
9.619530000000001
 20
-13.381330000000002
 30
0.0
 10
9.619530000000001
 20
-13.386640000000002
 30
0.0
 10
9.619530000000001
 20
-13.386640000000002
 30
0.0
 10
9.619530000000001
 20
-13.391420000000002
 30
0.0
 10
9.6209700000000016
 20
-13.395650000000002
 30
0.0
 10
9.6238100000000006
 20
-13.39944
 30
0.0
 10
9.6238100000000006
 20
-13.39944
 30
0.0
 10
9.62669
 20
-13.403230000000001
 30
0.0
 10
9.6306400000000014
 20
-13.405900000000001
 30
0.0
 10
9.6356999999999999
 20
-13.40751
 30
0.0
 10
9.6356999999999999
 20
-13.40751
 30
0.0
 10
9.6434000000000015
 20
-13.409940000000001
 30
0.0
 10
9.65184
 20
-13.411130000000002
 30
0.0
 10
9.6610200000000006
 20
-13.411130000000002
 30
0.0
 10
9.6610200000000006
 20
-13.411130000000002
 30
0.0
 10
9.6610200000000006
 20
-13.411130000000002
 30
0.0
 10
9.728060000000001
 20
-13.411130000000002
 30
0.0
 10
9.728060000000001
 20
-13.411130000000002
 30
0.0
 10
9.728060000000001
 20
-13.411130000000002
 30
0.0
 10
9.728060000000001
 20
-13.411130000000002
 30
0.0
 10
9.728060000000001
 20
-13.432820000000001
 30
0.0
 10
9.728060000000001
 20
-13.432820000000001
 30
0.0
  0
SPLINE
  5
2F
100
AcDbEntity
  8
Plan 1
100
AcDbSpline
210
0.0
220
0.0
230
1.0
 70
     1
 71
     3
 72
    56
 73
    52
 74
     0
 42
0.0000000001
 43
0.0000000001
 40
0.0
 40
0.0
 40
0.0
 40
0.0
 40
0.0769230769230769
 40
0.0769230769230769
 40
0.0769230769230769
 40
0.0769230769230769
 40
0.1538461538461539
 40
0.1538461538461539
 40
0.1538461538461539
 40
0.1538461538461539
 40
0.2307692307692308
 40
0.2307692307692308
 40
0.2307692307692308
 40
0.2307692307692308
 40
0.3076923076923077
 40
0.3076923076923077
 40
0.3076923076923077
 40
0.3076923076923077
 40
0.3846153846153846
 40
0.3846153846153846
 40
0.3846153846153846
 40
0.3846153846153846
 40
0.4615384615384616
 40
0.4615384615384616
 40
0.4615384615384616
 40
0.4615384615384616
 40
0.5384615384615386
 40
0.5384615384615386
 40
0.5384615384615386
 40
0.5384615384615386
 40
0.6153846153846154
 40
0.6153846153846154
 40
0.6153846153846154
 40
0.6153846153846154
 40
0.6923076923076923
 40
0.6923076923076923
 40
0.6923076923076923
 40
0.6923076923076923
 40
0.7692307692307692
 40
0.7692307692307692
 40
0.7692307692307692
 40
0.7692307692307692
 40
0.846153846153846
 40
0.846153846153846
 40
0.846153846153846
 40
0.846153846153846
 40
0.9230769230769229
 40
0.9230769230769229
 40
0.9230769230769229
 40
0.9230769230769229
 40
1.0
 40
1.0
 40
1.0
 40
1.0
 10
9.728060000000001
 20
-13.35059
 30
0.0
 10
9.728060000000001
 20
-13.35059
 30
0.0
 10
9.6000200000000007
 20
-13.35059
 30
0.0
 10
9.6000200000000007
 20
-13.35059
 30
0.0
 10
9.6000200000000007
 20
-13.35059
 30
0.0
 10
9.6000200000000007
 20
-13.35059
 30
0.0
 10
9.6000200000000007
 20
-13.331080000000002
 30
0.0
 10
9.6000200000000007
 20
-13.331080000000002
 30
0.0
 10
9.6000200000000007
 20
-13.331080000000002
 30
0.0
 10
9.6000200000000007
 20
-13.331080000000002
 30
0.0
 10
9.6194100000000002
 20
-13.331080000000002
 30
0.0
 10
9.6194100000000002
 20
-13.331080000000002
 30
0.0
 10
9.6194100000000002
 20
-13.331080000000002
 30
0.0
 10
9.6103500000000004
 20
-13.3261
 30
0.0
 10
9.6043400000000005
 20
-13.321490000000001
 30
0.0
 10
9.6014600000000012
 20
-13.317250000000001
 30
0.0
 10
9.6014600000000012
 20
-13.317250000000001
 30
0.0
 10
9.5985800000000001
 20
-13.31305
 30
0.0
 10
9.5971000000000011
 20
-13.308400000000001
 30
0.0
 10
9.5971000000000011
 20
-13.30334
 30
0.0
 10
9.5971000000000011
 20
-13.30334
 30
0.0
 10
9.5971000000000011
 20
-13.29602
 30
0.0
 10
9.5994500000000009
 20
-13.28861
 30
0.0
 10
9.6041000000000007
 20
-13.281030000000001
 30
0.0
 10
9.6041000000000007
 20
-13.281030000000001
 30
0.0
 10
9.6041000000000007
 20
-13.281030000000001
 30
0.0
 10
9.6242600000000014
 20
-13.288520000000002
 30
0.0
 10
9.6242600000000014
 20
-13.288520000000002
 30
0.0
 10
9.6242600000000014
 20
-13.288520000000002
 30
0.0
 10
9.6210900000000006
 20
-13.293790000000001
 30
0.0
 10
9.619530000000001
 20
-13.299100000000001
 30
0.0
 10
9.619530000000001
 20
-13.304410000000001
 30
0.0
 10
9.619530000000001
 20
-13.304410000000001
 30
0.0
 10
9.619530000000001
 20
-13.309190000000001
 30
0.0
 10
9.6209700000000016
 20
-13.313420000000001
 30
0.0
 10
9.6238100000000006
 20
-13.317210000000001
 30
0.0
 10
9.6238100000000006
 20
-13.317210000000001
 30
0.0
 10
9.62669
 20
-13.321000000000002
 30
0.0
 10
9.6306400000000014
 20
-13.323670000000002
 30
0.0
 10
9.6356999999999999
 20
-13.325280000000001
 30
0.0
 10
9.6356999999999999
 20
-13.325280000000001
 30
0.0
 10
9.6434000000000015
 20
-13.327710000000002
 30
0.0
 10
9.65184
 20
-13.328900000000001
 30
0.0
 10
9.6610200000000006
 20
-13.328900000000001
 30
0.0
 10
9.6610200000000006
 20
-13.328900000000001
 30
0.0
 10
9.6610200000000006
 20
-13.328900000000001
 30
0.0
 10
9.728060000000001
 20
-13.328900000000001
 30
0.0
 10
9.728060000000001
 20
-13.328900000000001
 30
0.0
 10
9.728060000000001
 20
-13.328900000000001
 30
0.0
 10
9.728060000000001
 20
-13.328900000000001
 30
0.0
 10
9.728060000000001
 20
-13.35059
 30
0.0
 10
9.728060000000001
 20
-13.35059
 30
0.0
  0
SPLINE
  5
30
100
AcDbEntity
  8
Plan 1
100
AcDbSpline
210
0.0
220
0.0
230
1.0
 70
     1
 71
     3
 72
    64
 73
    60
 74
     0
 42
0.0000000001
 43
0.0000000001
 40
0.0
 40
0.0
 40
0.0
 40
0.0
 40
0.0666666666666667
 40
0.0666666666666667
 40
0.0666666666666667
 40
0.0666666666666667
 40
0.1333333333333333
 40
0.1333333333333333
 40
0.1333333333333333
 40
0.1333333333333333
 40
0.2
 40
0.2
 40
0.2
 40
0.2
 40
0.2666666666666667
 40
0.2666666666666667
 40
0.2666666666666667
 40
0.2666666666666667
 40
0.3333333333333333
 40
0.3333333333333333
 40
0.3333333333333333
 40
0.3333333333333333
 40
0.4
 40
0.4
 40
0.4
 40
0.4
 40
0.4666666666666666
 40
0.4666666666666666
 40
0.4666666666666666
 40
0.4666666666666666
 40
0.5333333333333333
 40
0.5333333333333333
 40
0.5333333333333333
 40
0.5333333333333333
 40
0.6
 40
0.6
 40
0.6
 40
0.6
 40
0.6666666666666666
 40
0.6666666666666666
 40
0.6666666666666666
 40
0.6666666666666666
 40
0.7333333333333333
 40
0.7333333333333333
 40
0.7333333333333333
 40
0.7333333333333333
 40
0.7999999999999999
 40
0.7999999999999999
 40
0.7999999999999999
 40
0.7999999999999999
 40
0.8666666666666666
 40
0.8666666666666666
 40
0.8666666666666666
 40
0.8666666666666666
 40
0.9333333333333332
 40
0.9333333333333332
 40
0.9333333333333332
 40
0.9333333333333332
 40
1.0
 40
1.0
 40
1.0
 40
1.0
 10
9.6868200000000009
 20
-13.180490000000001
 30
0.0
 10
9.6868200000000009
 20
-13.180490000000001
 30
0.0
 10
9.6895800000000012
 20
-13.158060000000001
 30
0.0
 10
9.6895800000000012
 20
-13.158060000000001
 30
0.0
 10
9.6895800000000012
 20
-13.158060000000001
 30
0.0
 10
9.7027100000000015
 20
-13.161600000000002
 30
0.0
 10
9.7128700000000006
 20
-13.168140000000001
 30
0.0
 10
9.7201200000000014
 20
-13.177690000000002
 30
0.0
 10
9.7201200000000014
 20
-13.177690000000002
 30
0.0
 10
9.7273200000000006
 20
-13.187280000000001
 30
0.0
 10
9.7309400000000004
 20
-13.1995
 30
0.0
 10
9.7309400000000004
 20
-13.214360000000001
 30
0.0
 10
9.7309400000000004
 20
-13.214360000000001
 30
0.0
 10
9.7309400000000004
 20
-13.233090000000001
 30
0.0
 10
9.7251799999999999
 20
-13.247950000000001
 30
0.0
 10
9.7136600000000008
 20
-13.258890000000001
 30
0.0
 10
9.7136600000000008
 20
-13.258890000000001
 30
0.0
 10
9.7021300000000004
 20
-13.269880000000001
 30
0.0
 10
9.6859600000000015
 20
-13.275360000000001
 30
0.0
 10
9.6651300000000013
 20
-13.275360000000001
 30
0.0
 10
9.6651300000000013
 20
-13.275360000000001
 30
0.0
 10
9.6435700000000004
 20
-13.275360000000001
 30
0.0
 10
9.6268600000000006
 20
-13.269800000000002
 30
0.0
 10
9.61496
 20
-13.258730000000002
 30
0.0
 10
9.61496
 20
-13.258730000000002
 30
0.0
 10
9.6030700000000007
 20
-13.247620000000001
 30
0.0
 10
9.5971000000000011
 20
-13.233250000000002
 30
0.0
 10
9.5971000000000011
 20
-13.21555
 30
0.0
 10
9.5971000000000011
 20
-13.21555
 30
0.0
 10
9.5971000000000011
 20
-13.198430000000002
 30
0.0
 10
9.6029400000000003
 20
-13.18444
 30
0.0
 10
9.6145900000000015
 20
-13.173620000000001
 30
0.0
 10
9.6145900000000015
 20
-13.173620000000001
 30
0.0
 10
9.626240000000001
 20
-13.162750000000001
 30
0.0
 10
9.6426600000000011
 20
-13.15732
 30
0.0
 10
9.6637700000000013
 20
-13.15732
 30
0.0
 10
9.6637700000000013
 20
-13.15732
 30
0.0
 10
9.6650900000000011
 20
-13.15732
 30
0.0
 10
9.6670200000000008
 20
-13.157360000000001
 30
0.0
 10
9.6695800000000016
 20
-13.157440000000001
 30
0.0
 10
9.6695800000000016
 20
-13.157440000000001
 30
0.0
 10
9.6695800000000016
 20
-13.157440000000001
 30
0.0
 10
9.6695800000000016
 20
-13.252930000000001
 30
0.0
 10
9.6695800000000016
 20
-13.252930000000001
 30
0.0
 10
9.6695800000000016
 20
-13.252930000000001
 30
0.0
 10
9.6836500000000001
 20
-13.252140000000001
 30
0.0
 10
9.6944400000000002
 20
-13.248150000000001
 30
0.0
 10
9.7018800000000009
 20
-13.240990000000002
 30
0.0
 10
9.7018800000000009
 20
-13.240990000000002
 30
0.0
 10
9.7093700000000016
 20
-13.233830000000001
 30
0.0
 10
9.71312
 20
-13.224940000000002
 30
0.0
 10
9.71312
 20
-13.21424
 30
0.0
 10
9.71312
 20
-13.21424
 30
0.0
 10
9.71312
 20
-13.206290000000001
 30
0.0
 10
9.7110200000000013
 20
-13.1995
 30
0.0
 10
9.7068200000000004
 20
-13.19387
 30
0.0
 10
9.7068200000000004
 20
-13.19387
 30
0.0
 10
9.7026700000000012
 20
-13.188230000000001
 30
0.0
 10
9.6960000000000015
 20
-13.18378
 30
0.0
 10
9.6868200000000009
 20
-13.180490000000001
 30
0.0
  0
SPLINE
  5
31
100
AcDbEntity
  8
Plan 1
100
AcDbSpline
210
0.0
220
0.0
230
1.0
 70
     1
 71
     3
 72
    24
 73
    20
 74
     0
 42
0.0000000001
 43
0.0000000001
 40
0.0
 40
0.0
 40
0.0
 40
0.0
 40
0.2
 40
0.2
 40
0.2
 40
0.2
 40
0.4
 40
0.4
 40
0.4
 40
0.4
 40
0.6000000000000001
 40
0.6000000000000001
 40
0.6000000000000001
 40
0.6000000000000001
 40
0.8
 40
0.8
 40
0.8
 40
0.8
 40
1.0
 40
1.0
 40
1.0
 40
1.0
 10
9.6517600000000012
 20
-13.25173
 30
0.0
 10
9.6517600000000012
 20
-13.25173
 30
0.0
 10
9.6517600000000012
 20
-13.180240000000001
 30
0.0
 10
9.6517600000000012
 20
-13.180240000000001
 30
0.0
 10
9.6517600000000012
 20
-13.180240000000001
 30
0.0
 10
9.6409700000000011
 20
-13.181190000000001
 30
0.0
 10
9.6328600000000009
 20
-13.183950000000001
 30
0.0
 10
9.6275100000000009
 20
-13.18843
 30
0.0
 10
9.6275100000000009
 20
-13.18843
 30
0.0
 10
9.6191600000000008
 20
-13.195350000000001
 30
0.0
 10
9.61496
 20
-13.204320000000001
 30
0.0
 10
9.61496
 20
-13.215310000000001
 30
0.0
 10
9.61496
 20
-13.215310000000001
 30
0.0
 10
9.61496
 20
-13.225270000000002
 30
0.0
 10
9.6183000000000014
 20
-13.23366
 30
0.0
 10
9.6249600000000015
 20
-13.240450000000001
 30
0.0
 10
9.6249600000000015
 20
-13.240450000000001
 30
0.0
 10
9.6316300000000012
 20
-13.247250000000001
 30
0.0
 10
9.6405600000000007
 20
-13.250990000000002
 30
0.0
 10
9.6517600000000012
 20
-13.25173
 30
0.0
  0
SPLINE
  5
32
100
AcDbEntity
  8
Plan 1
100
AcDbSpline
210
0.0
220
0.0
230
1.0
 70
     1
 71
     3
 72
    20
 73
    16
 74
     0
 42
0.0000000001
 43
0.0000000001
 40
0.0
 40
0.0
 40
0.0
 40
0.0
 40
0.25
 40
0.25
 40
0.25
 40
0.25
 40
0.5
 40
0.5
 40
0.5
 40
0.5
 40
0.75
 40
0.75
 40
0.75
 40
0.75
 40
1.0
 40
1.0
 40
1.0
 40
1.0
 10
9.6750100000000003
 20
-13.139250000000001
 30
0.0
 10
9.6750100000000003
 20
-13.139250000000001
 30
0.0
 10
9.6532
 20
-13.139250000000001
 30
0.0
 10
9.6532
 20
-13.139250000000001
 30
0.0
 10
9.6532
 20
-13.139250000000001
 30
0.0
 10
9.6532
 20
-13.139250000000001
 30
0.0
 10
9.6532
 20
-13.072540000000002
 30
0.0
 10
9.6532
 20
-13.072540000000002
 30
0.0
 10
9.6532
 20
-13.072540000000002
 30
0.0
 10
9.6532
 20
-13.072540000000002
 30
0.0
 10
9.6750100000000003
 20
-13.072540000000002
 30
0.0
 10
9.6750100000000003
 20
-13.072540000000002
 30
0.0
 10
9.6750100000000003
 20
-13.072540000000002
 30
0.0
 10
9.6750100000000003
 20
-13.072540000000002
 30
0.0
 10
9.6750100000000003
 20
-13.139250000000001
 30
0.0
 10
9.6750100000000003
 20
-13.139250000000001
 30
0.0
  0
SPLINE
  5
33
100
AcDbEntity
  8
Plan 1
100
AcDbSpline
210
0.0
220
0.0
230
1.0
 70
     1
 71
     3
 72
    92
 73
    88
 74
     0
 42
0.0000000001
 43
0.0000000001
 40
0.0
 40
0.0
 40
0.0
 40
0.0
 40
0.0454545454545455
 40
0.0454545454545455
 40
0.0454545454545455
 40
0.0454545454545455
 40
0.0909090909090909
 40
0.0909090909090909
 40
0.0909090909090909
 40
0.0909090909090909
 40
0.1363636363636364
 40
0.1363636363636364
 40
0.1363636363636364
 40
0.1363636363636364
 40
0.1818181818181818
 40
0.1818181818181818
 40
0.1818181818181818
 40
0.1818181818181818
 40
0.2272727272727273
 40
0.2272727272727273
 40
0.2272727272727273
 40
0.2272727272727273
 40
0.2727272727272728
 40
0.2727272727272728
 40
0.2727272727272728
 40
0.2727272727272728
 40
0.3181818181818182
 40
0.3181818181818182
 40
0.3181818181818182
 40
0.3181818181818182
 40
0.3636363636363637
 40
0.3636363636363637
 40
0.3636363636363637
 40
0.3636363636363637
 40
0.4090909090909092
 40
0.4090909090909092
 40
0.4090909090909092
 40
0.4090909090909092
 40
0.4545454545454546
 40
0.4545454545454546
 40
0.4545454545454546
 40
0.4545454545454546
 40
0.5000000000000001
 40
0.5000000000000001
 40
0.5000000000000001
 40
0.5000000000000001
 40
0.5454545454545455
 40
0.5454545454545455
 40
0.5454545454545455
 40
0.5454545454545455
 40
0.5909090909090909
 40
0.5909090909090909
 40
0.5909090909090909
 40
0.5909090909090909
 40
0.6363636363636364
 40
0.6363636363636364
 40
0.6363636363636364
 40
0.6363636363636364
 40
0.6818181818181818
 40
0.6818181818181818
 40
0.6818181818181818
 40
0.6818181818181818
 40
0.7272727272727272
 40
0.7272727272727272
 40
0.7272727272727272
 40
0.7272727272727272
 40
0.7727272727272726
 40
0.7727272727272726
 40
0.7727272727272726
 40
0.7727272727272726
 40
0.818181818181818
 40
0.818181818181818
 40
0.818181818181818
 40
0.818181818181818
 40
0.8636363636363634
 40
0.8636363636363634
 40
0.8636363636363634
 40
0.8636363636363634
 40
0.9090909090909088
 40
0.9090909090909088
 40
0.9090909090909088
 40
0.9090909090909088
 40
0.9545454545454543
 40
0.9545454545454543
 40
0.9545454545454543
 40
0.9545454545454543
 40
1.0
 40
1.0
 40
1.0
 40
1.0
 10
9.6660800000000009
 20
-12.919680000000001
 30
0.0
 10
9.6660800000000009
 20
-12.919680000000001
 30
0.0
 10
9.6720000000000006
 20
-12.896260000000002
 30
0.0
 10
9.6720000000000006
 20
-12.896260000000002
 30
0.0
 10
9.6720000000000006
 20
-12.896260000000002
 30
0.0
 10
9.691180000000001
 20
-12.901160000000001
 30
0.0
 10
9.7058400000000002
 20
-12.910010000000002
 30
0.0
 10
9.7159600000000008
 20
-12.922730000000001
 30
0.0
 10
9.7159600000000008
 20
-12.922730000000001
 30
0.0
 10
9.7260400000000011
 20
-12.935480000000002
 30
0.0
 10
9.7310600000000012
 20
-12.951040000000001
 30
0.0
 10
9.7310600000000012
 20
-12.969480000000001
 30
0.0
 10
9.7310600000000012
 20
-12.969480000000001
 30
0.0
 10
9.7310600000000012
 20
-12.98854
 30
0.0
 10
9.7272000000000016
 20
-13.004010000000001
 30
0.0
 10
9.7194600000000015
 20
-13.015950000000002
 30
0.0
 10
9.7194600000000015
 20
-13.015950000000002
 30
0.0
 10
9.7116800000000012
 20
-13.027880000000001
 30
0.0
 10
9.7004400000000004
 20
-13.036980000000002
 30
0.0
 10
9.6857500000000005
 20
-13.043190000000001
 30
0.0
 10
9.6857500000000005
 20
-13.043190000000001
 30
0.0
 10
9.6710200000000004
 20
-13.049410000000002
 30
0.0
 10
9.6552100000000003
 20
-13.052530000000001
 30
0.0
 10
9.6383400000000012
 20
-13.052530000000001
 30
0.0
 10
9.6383400000000012
 20
-13.052530000000001
 30
0.0
 10
9.6199400000000015
 20
-13.052530000000001
 30
0.0
 10
9.6038900000000016
 20
-13.049040000000002
 30
0.0
 10
9.5901900000000015
 20
-13.042000000000002
 30
0.0
 10
9.5901900000000015
 20
-13.042000000000002
 30
0.0
 10
9.5764800000000001
 20
-13.034960000000002
 30
0.0
 10
9.5660700000000016
 20
-13.024960000000002
 30
0.0
 10
9.5589500000000012
 20
-13.011950000000001
 30
0.0
 10
9.5589500000000012
 20
-13.011950000000001
 30
0.0
 10
9.5518300000000007
 20
-12.998990000000001
 30
0.0
 10
9.5482900000000015
 20
-12.984710000000002
 30
0.0
 10
9.5482900000000015
 20
-12.969110000000001
 30
0.0
 10
9.5482900000000015
 20
-12.969110000000001
 30
0.0
 10
9.5482900000000015
 20
-12.951410000000001
 30
0.0
 10
9.5527700000000006
 20
-12.93655
 30
0.0
 10
9.5617900000000002
 20
-12.924500000000002
 30
0.0
 10
9.5617900000000002
 20
-12.924500000000002
 30
0.0
 10
9.5708000000000002
 20
-12.912440000000002
 30
0.0
 10
9.5834400000000013
 20
-12.90404
 30
0.0
 10
9.5997700000000012
 20
-12.899310000000002
 30
0.0
 10
9.5997700000000012
 20
-12.899310000000002
 30
0.0
 10
9.5997700000000012
 20
-12.899310000000002
 30
0.0
 10
9.6052100000000014
 20
-12.922310000000001
 30
0.0
 10
9.6052100000000014
 20
-12.922310000000001
 30
0.0
 10
9.6052100000000014
 20
-12.922310000000001
 30
0.0
 10
9.5923300000000005
 20
-12.926430000000002
 30
0.0
 10
9.5829800000000009
 20
-12.932360000000001
 30
0.0
 10
9.5771000000000015
 20
-12.940180000000002
 30
0.0
 10
9.5771000000000015
 20
-12.940180000000002
 30
0.0
 10
9.5712100000000007
 20
-12.947960000000002
 30
0.0
 10
9.5682900000000011
 20
-12.957750000000001
 30
0.0
 10
9.5682900000000011
 20
-12.969600000000002
 30
0.0
 10
9.5682900000000011
 20
-12.969600000000002
 30
0.0
 10
9.5682900000000011
 20
-12.98319
 30
0.0
 10
9.5715400000000006
 20
-12.9945
 30
0.0
 10
9.5780400000000014
 20
-13.003640000000001
 30
0.0
 10
9.5780400000000014
 20
-13.003640000000001
 30
0.0
 10
9.5845900000000004
 20
-13.012780000000001
 30
0.0
 10
9.5933100000000007
 20
-13.019200000000001
 30
0.0
 10
9.6043000000000003
 20
-13.022860000000001
 30
0.0
 10
9.6043000000000003
 20
-13.022860000000001
 30
0.0
 10
9.6152500000000014
 20
-13.026560000000002
 30
0.0
 10
9.626570000000001
 20
-13.028420000000001
 30
0.0
 10
9.6382100000000008
 20
-13.028420000000001
 30
0.0
 10
9.6382100000000008
 20
-13.028420000000001
 30
0.0
 10
9.6532800000000005
 20
-13.028420000000001
 30
0.0
 10
9.6663700000000006
 20
-13.026240000000001
 30
0.0
 10
9.6776
 20
-13.021870000000002
 30
0.0
 10
9.6776
 20
-13.021870000000002
 30
0.0
 10
9.6888000000000005
 20
-13.017470000000001
 30
0.0
 10
9.6971900000000009
 20
-13.010680000000001
 30
0.0
 10
9.70275
 20
-13.001420000000001
 30
0.0
 10
9.70275
 20
-13.001420000000001
 30
0.0
 10
9.7083000000000013
 20
-12.992160000000002
 30
0.0
 10
9.7110600000000016
 20
-12.98216
 30
0.0
 10
9.7110600000000016
 20
-12.97137
 30
0.0
 10
9.7110600000000016
 20
-12.97137
 30
0.0
 10
9.7110600000000016
 20
-12.958290000000002
 30
0.0
 10
9.7072800000000008
 20
-12.947210000000002
 30
0.0
 10
9.6997400000000003
 20
-12.938120000000001
 30
0.0
 10
9.6997400000000003
 20
-12.938120000000001
 30
0.0
 10
9.6921700000000008
 20
-12.929020000000001
 30
0.0
 10
9.6809400000000014
 20
-12.922890000000001
 30
0.0
 10
9.6660800000000009
 20
-12.919680000000001
 30
0.0
  0
SPLINE
  5
34
100
AcDbEntity
  8
Plan 1
100
AcDbSpline
210
0.0
220
0.0
230
1.0
 70
     1
 71
     3
 72
    72
 73
    68
 74
     0
 42
0.0000000001
 43
0.0000000001
 40
0.0
 40
0.0
 40
0.0
 40
0.0
 40
0.0588235294117647
 40
0.0588235294117647
 40
0.0588235294117647
 40
0.0588235294117647
 40
0.1176470588235294
 40
0.1176470588235294
 40
0.1176470588235294
 40
0.1176470588235294
 40
0.1764705882352941
 40
0.1764705882352941
 40
0.1764705882352941
 40
0.1764705882352941
 40
0.2352941176470588
 40
0.2352941176470588
 40
0.2352941176470588
 40
0.2352941176470588
 40
0.2941176470588235
 40
0.2941176470588235
 40
0.2941176470588235
 40
0.2941176470588235
 40
0.3529411764705883
 40
0.3529411764705883
 40
0.3529411764705883
 40
0.3529411764705883
 40
0.411764705882353
 40
0.411764705882353
 40
0.411764705882353
 40
0.411764705882353
 40
0.4705882352941177
 40
0.4705882352941177
 40
0.4705882352941177
 40
0.4705882352941177
 40
0.5294117647058824
 40
0.5294117647058824
 40
0.5294117647058824
 40
0.5294117647058824
 40
0.5882352941176471
 40
0.5882352941176471
 40
0.5882352941176471
 40
0.5882352941176471
 40
0.6470588235294118
 40
0.6470588235294118
 40
0.6470588235294118
 40
0.6470588235294118
 40
0.7058823529411765
 40
0.7058823529411765
 40
0.7058823529411765
 40
0.7058823529411765
 40
0.7647058823529412
 40
0.7647058823529412
 40
0.7647058823529412
 40
0.7647058823529412
 40
0.823529411764706
 40
0.823529411764706
 40
0.823529411764706
 40
0.823529411764706
 40
0.8823529411764707
 40
0.8823529411764707
 40
0.8823529411764707
 40
0.8823529411764707
 40
0.9411764705882354
 40
0.9411764705882354
 40
0.9411764705882354
 40
0.9411764705882354
 40
1.0
 40
1.0
 40
1.0
 40
1.0
 10
9.728060000000001
 20
-12.870210000000002
 30
0.0
 10
9.728060000000001
 20
-12.870210000000002
 30
0.0
 10
9.5512900000000016
 20
-12.870210000000002
 30
0.0
 10
9.5512900000000016
 20
-12.870210000000002
 30
0.0
 10
9.5512900000000016
 20
-12.870210000000002
 30
0.0
 10
9.5512900000000016
 20
-12.870210000000002
 30
0.0
 10
9.5512900000000016
 20
-12.848520000000001
 30
0.0
 10
9.5512900000000016
 20
-12.848520000000001
 30
0.0
 10
9.5512900000000016
 20
-12.848520000000001
 30
0.0
 10
9.5512900000000016
 20
-12.848520000000001
 30
0.0
 10
9.6147100000000005
 20
-12.848520000000001
 30
0.0
 10
9.6147100000000005
 20
-12.848520000000001
 30
0.0
 10
9.6147100000000005
 20
-12.848520000000001
 30
0.0
 10
9.6029800000000005
 20
-12.838400000000002
 30
0.0
 10
9.5971000000000011
 20
-12.825600000000001
 30
0.0
 10
9.5971000000000011
 20
-12.810160000000002
 30
0.0
 10
9.5971000000000011
 20
-12.810160000000002
 30
0.0
 10
9.5971000000000011
 20
-12.800700000000001
 30
0.0
 10
9.5989900000000006
 20
-12.792470000000002
 30
0.0
 10
9.6027400000000007
 20
-12.785470000000002
 30
0.0
 10
9.6027400000000007
 20
-12.785470000000002
 30
0.0
 10
9.606440000000001
 20
-12.77847
 30
0.0
 10
9.6116300000000017
 20
-12.77345
 30
0.0
 10
9.6182100000000013
 20
-12.77045
 30
0.0
 10
9.6182100000000013
 20
-12.77045
 30
0.0
 10
9.6248000000000005
 20
-12.767440000000001
 30
0.0
 10
9.6343900000000016
 20
-12.765920000000001
 30
0.0
 10
9.6469000000000005
 20
-12.765920000000001
 30
0.0
 10
9.6469000000000005
 20
-12.765920000000001
 30
0.0
 10
9.6469000000000005
 20
-12.765920000000001
 30
0.0
 10
9.728060000000001
 20
-12.765920000000001
 30
0.0
 10
9.728060000000001
 20
-12.765920000000001
 30
0.0
 10
9.728060000000001
 20
-12.765920000000001
 30
0.0
 10
9.728060000000001
 20
-12.765920000000001
 30
0.0
 10
9.728060000000001
 20
-12.787650000000001
 30
0.0
 10
9.728060000000001
 20
-12.787650000000001
 30
0.0
 10
9.728060000000001
 20
-12.787650000000001
 30
0.0
 10
9.728060000000001
 20
-12.787650000000001
 30
0.0
 10
9.6469000000000005
 20
-12.787650000000001
 30
0.0
 10
9.6469000000000005
 20
-12.787650000000001
 30
0.0
 10
9.6469000000000005
 20
-12.787650000000001
 30
0.0
 10
9.6360700000000001
 20
-12.787650000000001
 30
0.0
 10
9.6281700000000008
 20
-12.790000000000001
 30
0.0
 10
9.6232300000000013
 20
-12.794690000000001
 30
0.0
 10
9.6232300000000013
 20
-12.794690000000001
 30
0.0
 10
9.6183000000000014
 20
-12.799380000000001
 30
0.0
 10
9.6157800000000009
 20
-12.806050000000001
 30
0.0
 10
9.6157800000000009
 20
-12.81465
 30
0.0
 10
9.6157800000000009
 20
-12.81465
 30
0.0
 10
9.6157800000000009
 20
-12.821070000000001
 30
0.0
 10
9.6174700000000009
 20
-12.827120000000001
 30
0.0
 10
9.6208100000000005
 20
-12.832800000000001
 30
0.0
 10
9.6208100000000005
 20
-12.832800000000001
 30
0.0
 10
9.6241400000000006
 20
-12.838480000000001
 30
0.0
 10
9.6286700000000014
 20
-12.842510000000001
 30
0.0
 10
9.6343900000000016
 20
-12.844900000000001
 30
0.0
 10
9.6343900000000016
 20
-12.844900000000001
 30
0.0
 10
9.6400700000000015
 20
-12.847330000000001
 30
0.0
 10
9.6479700000000008
 20
-12.848520000000001
 30
0.0
 10
9.6580100000000009
 20
-12.848520000000001
 30
0.0
 10
9.6580100000000009
 20
-12.848520000000001
 30
0.0
 10
9.6580100000000009
 20
-12.848520000000001
 30
0.0
 10
9.728060000000001
 20
-12.848520000000001
 30
0.0
 10
9.728060000000001
 20
-12.848520000000001
 30
0.0
 10
9.728060000000001
 20
-12.848520000000001
 30
0.0
 10
9.728060000000001
 20
-12.848520000000001
 30
0.0
 10
9.728060000000001
 20
-12.870210000000002
 30
0.0
 10
9.728060000000001
 20
-12.870210000000002
 30
0.0
  0
SPLINE
  5
35
100
AcDbEntity
  8
Plan 1
100
AcDbSpline
210
0.0
220
0.0
230
1.0
 70
     1
 71
     3
 72
   112
 73
   108
 74
     0
 42
0.0000000001
 43
0.0000000001
 40
0.0
 40
0.0
 40
0.0
 40
0.0
 40
0.037037037037037
 40
0.037037037037037
 40
0.037037037037037
 40
0.037037037037037
 40
0.0740740740740741
 40
0.0740740740740741
 40
0.0740740740740741
 40
0.0740740740740741
 40
0.1111111111111111
 40
0.1111111111111111
 40
0.1111111111111111
 40
0.1111111111111111
 40
0.1481481481481481
 40
0.1481481481481481
 40
0.1481481481481481
 40
0.1481481481481481
 40
0.1851851851851852
 40
0.1851851851851852
 40
0.1851851851851852
 40
0.1851851851851852
 40
0.2222222222222222
 40
0.2222222222222222
 40
0.2222222222222222
 40
0.2222222222222222
 40
0.2592592592592592
 40
0.2592592592592592
 40
0.2592592592592592
 40
0.2592592592592592
 40
0.2962962962962963
 40
0.2962962962962963
 40
0.2962962962962963
 40
0.2962962962962963
 40
0.3333333333333333
 40
0.3333333333333333
 40
0.3333333333333333
 40
0.3333333333333333
 40
0.3703703703703704
 40
0.3703703703703704
 40
0.3703703703703704
 40
0.3703703703703704
 40
0.4074074074074074
 40
0.4074074074074074
 40
0.4074074074074074
 40
0.4074074074074074
 40
0.4444444444444444
 40
0.4444444444444444
 40
0.4444444444444444
 40
0.4444444444444444
 40
0.4814814814814815
 40
0.4814814814814815
 40
0.4814814814814815
 40
0.4814814814814815
 40
0.5185185185185185
 40
0.5185185185185185
 40
0.5185185185185185
 40
0.5185185185185185
 40
0.5555555555555556
 40
0.5555555555555556
 40
0.5555555555555556
 40
0.5555555555555556
 40
0.5925925925925926
 40
0.5925925925925926
 40
0.5925925925925926
 40
0.5925925925925926
 40
0.6296296296296295
 40
0.6296296296296295
 40
0.6296296296296295
 40
0.6296296296296295
 40
0.6666666666666665
 40
0.6666666666666665
 40
0.6666666666666665
 40
0.6666666666666665
 40
0.7037037037037035
 40
0.7037037037037035
 40
0.7037037037037035
 40
0.7037037037037035
 40
0.7407407407407405
 40
0.7407407407407405
 40
0.7407407407407405
 40
0.7407407407407405
 40
0.7777777777777775
 40
0.7777777777777775
 40
0.7777777777777775
 40
0.7777777777777775
 40
0.8148148148148144
 40
0.8148148148148144
 40
0.8148148148148144
 40
0.8148148148148144
 40
0.8518518518518514
 40
0.8518518518518514
 40
0.8518518518518514
 40
0.8518518518518514
 40
0.8888888888888884
 40
0.8888888888888884
 40
0.8888888888888884
 40
0.8888888888888884
 40
0.9259259259259254
 40
0.9259259259259254
 40
0.9259259259259254
 40
0.9259259259259254
 40
0.9629629629629624
 40
0.9629629629629624
 40
0.9629629629629624
 40
0.9629629629629624
 40
1.0
 40
1.0
 40
1.0
 40
1.0
 10
9.7122600000000006
 20
-12.649320000000001
 30
0.0
 10
9.7190900000000013
 20
-12.657390000000001
 30
0.0
 10
9.7239000000000004
 20
-12.665130000000001
 30
0.0
 10
9.7267400000000013
 20
-12.672540000000001
 30
0.0
 10
9.7267400000000013
 20
-12.672540000000001
 30
0.0
 10
9.7295400000000001
 20
-12.679990000000002
 30
0.0
 10
9.7309400000000004
 20
-12.687970000000002
 30
0.0
 10
9.7309400000000004
 20
-12.696490000000001
 30
0.0
 10
9.7309400000000004
 20
-12.696490000000001
 30
0.0
 10
9.7309400000000004
 20
-12.710570000000001
 30
0.0
 10
9.7275200000000002
 20
-12.721350000000001
 30
0.0
 10
9.7206500000000009
 20
-12.72892
 30
0.0
 10
9.7206500000000009
 20
-12.72892
 30
0.0
 10
9.7137800000000016
 20
-12.736450000000001
 30
0.0
 10
9.7049700000000012
 20
-12.740240000000002
 30
0.0
 10
9.6943100000000015
 20
-12.740240000000002
 30
0.0
 10
9.6943100000000015
 20
-12.740240000000002
 30
0.0
 10
9.6880100000000002
 20
-12.740240000000002
 30
0.0
 10
9.6822900000000001
 20
-12.738840000000001
 30
0.0
 10
9.6771100000000008
 20
-12.73596
 30
0.0
 10
9.6771100000000008
 20
-12.73596
 30
0.0
 10
9.6719200000000001
 20
-12.733120000000001
 30
0.0
 10
9.6677700000000009
 20
-12.729370000000001
 30
0.0
 10
9.6646400000000003
 20
-12.724760000000002
 30
0.0
 10
9.6646400000000003
 20
-12.724760000000002
 30
0.0
 10
9.6615100000000016
 20
-12.720110000000002
 30
0.0
 10
9.6591200000000015
 20
-12.714930000000001
 30
0.0
 10
9.6575200000000017
 20
-12.70912
 30
0.0
 10
9.6575200000000017
 20
-12.70912
 30
0.0
 10
9.656410000000001
 20
-12.704890000000001
 30
0.0
 10
9.6553000000000004
 20
-12.698460000000001
 30
0.0
 10
9.6542700000000004
 20
-12.689860000000001
 30
0.0
 10
9.6542700000000004
 20
-12.689860000000001
 30
0.0
 10
9.6521699999999999
 20
-12.672330000000001
 30
0.0
 10
9.6497000000000011
 20
-12.659410000000001
 30
0.0
 10
9.6467800000000015
 20
-12.65113
 30
0.0
 10
9.6467800000000015
 20
-12.65113
 30
0.0
 10
9.6438100000000002
 20
-12.651050000000001
 30
0.0
 10
9.6419200000000007
 20
-12.651010000000001
 30
0.0
 10
9.64114
 20
-12.651010000000001
 30
0.0
 10
9.64114
 20
-12.651010000000001
 30
0.0
 10
9.6322900000000011
 20
-12.651010000000001
 30
0.0
 10
9.6260300000000001
 20
-12.653070000000001
 30
0.0
 10
9.6224500000000006
 20
-12.65718
 30
0.0
 10
9.6224500000000006
 20
-12.65718
 30
0.0
 10
9.6175100000000011
 20
-12.662700000000001
 30
0.0
 10
9.6150800000000007
 20
-12.670970000000001
 30
0.0
 10
9.6150800000000007
 20
-12.681880000000001
 30
0.0
 10
9.6150800000000007
 20
-12.681880000000001
 30
0.0
 10
9.6150800000000007
 20
-12.69209
 30
0.0
 10
9.6168500000000012
 20
-12.699620000000001
 30
0.0
 10
9.6204400000000003
 20
-12.70452
 30
0.0
 10
9.6204400000000003
 20
-12.70452
 30
0.0
 10
9.6240200000000016
 20
-12.709370000000002
 30
0.0
 10
9.63035
 20
-12.712950000000001
 30
0.0
 10
9.6394500000000001
 20
-12.715300000000001
 30
0.0
 10
9.6394500000000001
 20
-12.715300000000001
 30
0.0
 10
9.6394500000000001
 20
-12.715300000000001
 30
0.0
 10
9.6365300000000005
 20
-12.736490000000002
 30
0.0
 10
9.6365300000000005
 20
-12.736490000000002
 30
0.0
 10
9.6365300000000005
 20
-12.736490000000002
 30
0.0
 10
9.6274700000000006
 20
-12.734560000000002
 30
0.0
 10
9.6201100000000004
 20
-12.731390000000001
 30
0.0
 10
9.6145500000000013
 20
-12.726990000000001
 30
0.0
 10
9.6145500000000013
 20
-12.726990000000001
 30
0.0
 10
9.6089500000000001
 20
-12.722580000000001
 30
0.0
 10
9.6046300000000002
 20
-12.71616
 30
0.0
 10
9.6016300000000001
 20
-12.70781
 30
0.0
 10
9.6016300000000001
 20
-12.70781
 30
0.0
 10
9.5986200000000004
 20
-12.699450000000001
 30
0.0
 10
9.5971000000000011
 20
-12.689780000000001
 30
0.0
 10
9.5971000000000011
 20
-12.678750000000001
 30
0.0
 10
9.5971000000000011
 20
-12.678750000000001
 30
0.0
 10
9.5971000000000011
 20
-12.667800000000002
 30
0.0
 10
9.5984200000000008
 20
-12.658950000000001
 30
0.0
 10
9.6009700000000002
 20
-12.652120000000002
 30
0.0
 10
9.6009700000000002
 20
-12.652120000000002
 30
0.0
 10
9.6035600000000017
 20
-12.645290000000001
 30
0.0
 10
9.6067700000000009
 20
-12.640270000000001
 30
0.0
 10
9.6106800000000003
 20
-12.637020000000001
 30
0.0
 10
9.6106800000000003
 20
-12.637020000000001
 30
0.0
 10
9.6145900000000015
 20
-12.63381
 30
0.0
 10
9.6194900000000008
 20
-12.631590000000001
 30
0.0
 10
9.6254600000000003
 20
-12.630270000000001
 30
0.0
 10
9.6254600000000003
 20
-12.630270000000001
 30
0.0
 10
9.6291600000000006
 20
-12.629570000000001
 30
0.0
 10
9.6358300000000003
 20
-12.629200000000001
 30
0.0
 10
9.6454599999999999
 20
-12.629200000000001
 30
0.0
 10
9.6454599999999999
 20
-12.629200000000001
 30
0.0
 10
9.6454599999999999
 20
-12.629200000000001
 30
0.0
 10
9.6743900000000007
 20
-12.629200000000001
 30
0.0
 10
9.6743900000000007
 20
-12.629200000000001
 30
0.0
 10
9.6743900000000007
 20
-12.629200000000001
 30
0.0
 10
9.6946000000000012
 20
-12.629200000000001
 30
0.0
 10
9.7073600000000013
 20
-12.628750000000002
 30
0.0
 10
9.712670000000001
 20
-12.627800000000001
 30
0.0
 10
9.712670000000001
 20
-12.627800000000001
 30
0.0
 10
9.718020000000001
 20
-12.626890000000001
 30
0.0
 10
9.72316
 20
-12.62504
 30
0.0
 10
9.728060000000001
 20
-12.622330000000002
 30
0.0
 10
9.728060000000001
 20
-12.622330000000002
 30
0.0
 10
9.728060000000001
 20
-12.622330000000002
 30
0.0
 10
9.728060000000001
 20
-12.645000000000001
 30
0.0
 10
9.728060000000001
 20
-12.645000000000001
 30
0.0
 10
9.728060000000001
 20
-12.645000000000001
 30
0.0
 10
9.7235700000000005
 20
-12.647220000000001
 30
0.0
 10
9.7183100000000007
 20
-12.648710000000001
 30
0.0
 10
9.7122600000000006
 20
-12.649320000000001
 30
0.0
  0
SPLINE
  5
36
100
AcDbEntity
  8
Plan 1
100
AcDbSpline
210
0.0
220
0.0
230
1.0
 70
     1
 71
     3
 72
    44
 73
    40
 74
     0
 42
0.0000000001
 43
0.0000000001
 40
0.0
 40
0.0
 40
0.0
 40
0.0
 40
0.1
 40
0.1
 40
0.1
 40
0.1
 40
0.2
 40
0.2
 40
0.2
 40
0.2
 40
0.3
 40
0.3
 40
0.3
 40
0.3
 40
0.4
 40
0.4
 40
0.4
 40
0.4
 40
0.5
 40
0.5
 40
0.5
 40
0.5
 40
0.6
 40
0.6
 40
0.6
 40
0.6
 40
0.7
 40
0.7
 40
0.7
 40
0.7
 40
0.7999999999999999
 40
0.7999999999999999
 40
0.7999999999999999
 40
0.7999999999999999
 40
0.8999999999999999
 40
0.8999999999999999
 40
0.8999999999999999
 40
0.8999999999999999
 40
1.0
 40
1.0
 40
1.0
 40
1.0
 10
9.6637700000000013
 20
-12.65113
 30
0.0
 10
9.6670200000000008
 20
-12.659040000000001
 30
0.0
 10
9.6697400000000009
 20
-12.670850000000002
 30
0.0
 10
9.6720000000000006
 20
-12.686570000000001
 30
0.0
 10
9.6720000000000006
 20
-12.686570000000001
 30
0.0
 10
9.6732800000000001
 20
-12.695500000000001
 30
0.0
 10
9.6747200000000007
 20
-12.701840000000001
 30
0.0
 10
9.6763300000000001
 20
-12.705500000000001
 30
0.0
 10
9.6763300000000001
 20
-12.705500000000001
 30
0.0
 10
9.6779299999999999
 20
-12.709210000000001
 30
0.0
 10
9.6802800000000016
 20
-12.712090000000002
 30
0.0
 10
9.6834100000000003
 20
-12.714060000000002
 30
0.0
 10
9.6834100000000003
 20
-12.714060000000002
 30
0.0
 10
9.6864900000000009
 20
-12.716080000000002
 30
0.0
 10
9.6899100000000011
 20
-12.717110000000002
 30
0.0
 10
9.6936900000000001
 20
-12.717110000000002
 30
0.0
 10
9.6936900000000001
 20
-12.717110000000002
 30
0.0
 10
9.6995000000000005
 20
-12.717110000000002
 30
0.0
 10
9.7043100000000013
 20
-12.71489
 30
0.0
 10
9.7081800000000005
 20
-12.710520000000001
 30
0.0
 10
9.7081800000000005
 20
-12.710520000000001
 30
0.0
 10
9.7120100000000011
 20
-12.706160000000001
 30
0.0
 10
9.7139400000000009
 20
-12.69974
 30
0.0
 10
9.7139400000000009
 20
-12.691300000000002
 30
0.0
 10
9.7139400000000009
 20
-12.691300000000002
 30
0.0
 10
9.7139400000000009
 20
-12.682950000000002
 30
0.0
 10
9.7121300000000002
 20
-12.675500000000001
 30
0.0
 10
9.7084700000000002
 20
-12.669
 30
0.0
 10
9.7084700000000002
 20
-12.669
 30
0.0
 10
9.7048100000000002
 20
-12.662490000000002
 30
0.0
 10
9.6997900000000001
 20
-12.657680000000001
 30
0.0
 10
9.6934500000000003
 20
-12.654630000000001
 30
0.0
 10
9.6934500000000003
 20
-12.654630000000001
 30
0.0
 10
9.6885500000000011
 20
-12.652290000000001
 30
0.0
 10
9.6813100000000016
 20
-12.65113
 30
0.0
 10
9.6717600000000008
 20
-12.65113
 30
0.0
 10
9.6717600000000008
 20
-12.65113
 30
0.0
 10
9.6717600000000008
 20
-12.65113
 30
0.0
 10
9.6637700000000013
 20
-12.65113
 30
0.0
 10
9.6637700000000013
 20
-12.65113
 30
0.0
  0
SPLINE
  5
37
100
AcDbEntity
  8
Plan 1
100
AcDbSpline
210
0.0
220
0.0
230
1.0
 70
     1
 71
     3
 72
    56
 73
    52
 74
     0
 42
0.0000000001
 43
0.0000000001
 40
0.0
 40
0.0
 40
0.0
 40
0.0
 40
0.0769230769230769
 40
0.0769230769230769
 40
0.0769230769230769
 40
0.0769230769230769
 40
0.1538461538461539
 40
0.1538461538461539
 40
0.1538461538461539
 40
0.1538461538461539
 40
0.2307692307692308
 40
0.2307692307692308
 40
0.2307692307692308
 40
0.2307692307692308
 40
0.3076923076923077
 40
0.3076923076923077
 40
0.3076923076923077
 40
0.3076923076923077
 40
0.3846153846153846
 40
0.3846153846153846
 40
0.3846153846153846
 40
0.3846153846153846
 40
0.4615384615384616
 40
0.4615384615384616
 40
0.4615384615384616
 40
0.4615384615384616
 40
0.5384615384615386
 40
0.5384615384615386
 40
0.5384615384615386
 40
0.5384615384615386
 40
0.6153846153846154
 40
0.6153846153846154
 40
0.6153846153846154
 40
0.6153846153846154
 40
0.6923076923076923
 40
0.6923076923076923
 40
0.6923076923076923
 40
0.6923076923076923
 40
0.7692307692307692
 40
0.7692307692307692
 40
0.7692307692307692
 40
0.7692307692307692
 40
0.846153846153846
 40
0.846153846153846
 40
0.846153846153846
 40
0.846153846153846
 40
0.9230769230769229
 40
0.9230769230769229
 40
0.9230769230769229
 40
0.9230769230769229
 40
1.0
 40
1.0
 40
1.0
 40
1.0
 10
9.728060000000001
 20
-12.595780000000001
 30
0.0
 10
9.728060000000001
 20
-12.595780000000001
 30
0.0
 10
9.6000200000000007
 20
-12.595780000000001
 30
0.0
 10
9.6000200000000007
 20
-12.595780000000001
 30
0.0
 10
9.6000200000000007
 20
-12.595780000000001
 30
0.0
 10
9.6000200000000007
 20
-12.595780000000001
 30
0.0
 10
9.6000200000000007
 20
-12.576270000000001
 30
0.0
 10
9.6000200000000007
 20
-12.576270000000001
 30
0.0
 10
9.6000200000000007
 20
-12.576270000000001
 30
0.0
 10
9.6000200000000007
 20
-12.576270000000001
 30
0.0
 10
9.6194100000000002
 20
-12.576270000000001
 30
0.0
 10
9.6194100000000002
 20
-12.576270000000001
 30
0.0
 10
9.6194100000000002
 20
-12.576270000000001
 30
0.0
 10
9.6103500000000004
 20
-12.571290000000001
 30
0.0
 10
9.6043400000000005
 20
-12.566680000000002
 30
0.0
 10
9.6014600000000012
 20
-12.56244
 30
0.0
 10
9.6014600000000012
 20
-12.56244
 30
0.0
 10
9.5985800000000001
 20
-12.558240000000001
 30
0.0
 10
9.5971000000000011
 20
-12.553590000000002
 30
0.0
 10
9.5971000000000011
 20
-12.548530000000001
 30
0.0
 10
9.5971000000000011
 20
-12.548530000000001
 30
0.0
 10
9.5971000000000011
 20
-12.541210000000001
 30
0.0
 10
9.5994500000000009
 20
-12.533800000000001
 30
0.0
 10
9.6041000000000007
 20
-12.52622
 30
0.0
 10
9.6041000000000007
 20
-12.52622
 30
0.0
 10
9.6041000000000007
 20
-12.52622
 30
0.0
 10
9.6242600000000014
 20
-12.533710000000001
 30
0.0
 10
9.6242600000000014
 20
-12.533710000000001
 30
0.0
 10
9.6242600000000014
 20
-12.533710000000001
 30
0.0
 10
9.6210900000000006
 20
-12.53898
 30
0.0
 10
9.619530000000001
 20
-12.54429
 30
0.0
 10
9.619530000000001
 20
-12.549600000000002
 30
0.0
 10
9.619530000000001
 20
-12.549600000000002
 30
0.0
 10
9.619530000000001
 20
-12.554380000000002
 30
0.0
 10
9.6209700000000016
 20
-12.558610000000002
 30
0.0
 10
9.6238100000000006
 20
-12.5624
 30
0.0
 10
9.6238100000000006
 20
-12.5624
 30
0.0
 10
9.62669
 20
-12.566190000000001
 30
0.0
 10
9.6306400000000014
 20
-12.568860000000001
 30
0.0
 10
9.6356999999999999
 20
-12.57047
 30
0.0
 10
9.6356999999999999
 20
-12.57047
 30
0.0
 10
9.6434000000000015
 20
-12.572900000000001
 30
0.0
 10
9.65184
 20
-12.574090000000002
 30
0.0
 10
9.6610200000000006
 20
-12.574090000000002
 30
0.0
 10
9.6610200000000006
 20
-12.574090000000002
 30
0.0
 10
9.6610200000000006
 20
-12.574090000000002
 30
0.0
 10
9.728060000000001
 20
-12.574090000000002
 30
0.0
 10
9.728060000000001
 20
-12.574090000000002
 30
0.0
 10
9.728060000000001
 20
-12.574090000000002
 30
0.0
 10
9.728060000000001
 20
-12.574090000000002
 30
0.0
 10
9.728060000000001
 20
-12.595780000000001
 30
0.0
 10
9.728060000000001
 20
-12.595780000000001
 30
0.0
  0
SPLINE
  5
38
100
AcDbEntity
  8
Plan 1
100
AcDbSpline
210
0.0
220
0.0
230
1.0
 70
     1
 71
     3
 72
    20
 73
    16
 74
     0
 42
0.0000000001
 43
0.0000000001
 40
0.0
 40
0.0
 40
0.0
 40
0.0
 40
0.25
 40
0.25
 40
0.25
 40
0.25
 40
0.5
 40
0.5
 40
0.5
 40
0.5
 40
0.75
 40
0.75
 40
0.75
 40
0.75
 40
1.0
 40
1.0
 40
1.0
 40
1.0
 10
9.728060000000001
 20
-12.513800000000002
 30
0.0
 10
9.728060000000001
 20
-12.513800000000002
 30
0.0
 10
9.5512900000000016
 20
-12.513800000000002
 30
0.0
 10
9.5512900000000016
 20
-12.513800000000002
 30
0.0
 10
9.5512900000000016
 20
-12.513800000000002
 30
0.0
 10
9.5512900000000016
 20
-12.513800000000002
 30
0.0
 10
9.5512900000000016
 20
-12.49211
 30
0.0
 10
9.5512900000000016
 20
-12.49211
 30
0.0
 10
9.5512900000000016
 20
-12.49211
 30
0.0
 10
9.5512900000000016
 20
-12.49211
 30
0.0
 10
9.728060000000001
 20
-12.49211
 30
0.0
 10
9.728060000000001
 20
-12.49211
 30
0.0
 10
9.728060000000001
 20
-12.49211
 30
0.0
 10
9.728060000000001
 20
-12.49211
 30
0.0
 10
9.728060000000001
 20
-12.513800000000002
 30
0.0
 10
9.728060000000001
 20
-12.513800000000002
 30
0.0
  0
SPLINE
  5
39
100
AcDbEntity
  8
Plan 1
100
AcDbSpline
210
0.0
220
0.0
230
1.0
 70
     1
 71
     3
 72
    64
 73
    60
 74
     0
 42
0.0000000001
 43
0.0000000001
 40
0.0
 40
0.0
 40
0.0
 40
0.0
 40
0.0666666666666667
 40
0.0666666666666667
 40
0.0666666666666667
 40
0.0666666666666667
 40
0.1333333333333333
 40
0.1333333333333333
 40
0.1333333333333333
 40
0.1333333333333333
 40
0.2
 40
0.2
 40
0.2
 40
0.2
 40
0.2666666666666667
 40
0.2666666666666667
 40
0.2666666666666667
 40
0.2666666666666667
 40
0.3333333333333333
 40
0.3333333333333333
 40
0.3333333333333333
 40
0.3333333333333333
 40
0.4
 40
0.4
 40
0.4
 40
0.4
 40
0.4666666666666666
 40
0.4666666666666666
 40
0.4666666666666666
 40
0.4666666666666666
 40
0.5333333333333333
 40
0.5333333333333333
 40
0.5333333333333333
 40
0.5333333333333333
 40
0.6
 40
0.6
 40
0.6
 40
0.6
 40
0.6666666666666666
 40
0.6666666666666666
 40
0.6666666666666666
 40
0.6666666666666666
 40
0.7333333333333333
 40
0.7333333333333333
 40
0.7333333333333333
 40
0.7333333333333333
 40
0.7999999999999999
 40
0.7999999999999999
 40
0.7999999999999999
 40
0.7999999999999999
 40
0.8666666666666666
 40
0.8666666666666666
 40
0.8666666666666666
 40
0.8666666666666666
 40
0.9333333333333332
 40
0.9333333333333332
 40
0.9333333333333332
 40
0.9333333333333332
 40
1.0
 40
1.0
 40
1.0
 40
1.0
 10
9.6868200000000009
 20
-12.37082
 30
0.0
 10
9.6868200000000009
 20
-12.37082
 30
0.0
 10
9.6895800000000012
 20
-12.34839
 30
0.0
 10
9.6895800000000012
 20
-12.34839
 30
0.0
 10
9.6895800000000012
 20
-12.34839
 30
0.0
 10
9.7027100000000015
 20
-12.351930000000001
 30
0.0
 10
9.7128700000000006
 20
-12.358470000000001
 30
0.0
 10
9.7201200000000014
 20
-12.368020000000001
 30
0.0
 10
9.7201200000000014
 20
-12.368020000000001
 30
0.0
 10
9.7273200000000006
 20
-12.377610000000001
 30
0.0
 10
9.7309400000000004
 20
-12.389830000000002
 30
0.0
 10
9.7309400000000004
 20
-12.40469
 30
0.0
 10
9.7309400000000004
 20
-12.40469
 30
0.0
 10
9.7309400000000004
 20
-12.42342
 30
0.0
 10
9.7251799999999999
 20
-12.438280000000001
 30
0.0
 10
9.7136600000000008
 20
-12.44922
 30
0.0
 10
9.7136600000000008
 20
-12.44922
 30
0.0
 10
9.7021300000000004
 20
-12.460210000000002
 30
0.0
 10
9.6859600000000015
 20
-12.46569
 30
0.0
 10
9.6651300000000013
 20
-12.46569
 30
0.0
 10
9.6651300000000013
 20
-12.46569
 30
0.0
 10
9.6435700000000004
 20
-12.46569
 30
0.0
 10
9.6268600000000006
 20
-12.460130000000001
 30
0.0
 10
9.61496
 20
-12.449060000000001
 30
0.0
 10
9.61496
 20
-12.449060000000001
 30
0.0
 10
9.6030700000000007
 20
-12.437950000000001
 30
0.0
 10
9.5971000000000011
 20
-12.423580000000001
 30
0.0
 10
9.5971000000000011
 20
-12.405880000000002
 30
0.0
 10
9.5971000000000011
 20
-12.405880000000002
 30
0.0
 10
9.5971000000000011
 20
-12.388760000000001
 30
0.0
 10
9.6029400000000003
 20
-12.374770000000002
 30
0.0
 10
9.6145900000000015
 20
-12.363950000000001
 30
0.0
 10
9.6145900000000015
 20
-12.363950000000001
 30
0.0
 10
9.626240000000001
 20
-12.35308
 30
0.0
 10
9.6426600000000011
 20
-12.347650000000002
 30
0.0
 10
9.6637700000000013
 20
-12.347650000000002
 30
0.0
 10
9.6637700000000013
 20
-12.347650000000002
 30
0.0
 10
9.6650900000000011
 20
-12.347650000000002
 30
0.0
 10
9.6670200000000008
 20
-12.347690000000002
 30
0.0
 10
9.6695800000000016
 20
-12.347770000000001
 30
0.0
 10
9.6695800000000016
 20
-12.347770000000001
 30
0.0
 10
9.6695800000000016
 20
-12.347770000000001
 30
0.0
 10
9.6695800000000016
 20
-12.44326
 30
0.0
 10
9.6695800000000016
 20
-12.44326
 30
0.0
 10
9.6695800000000016
 20
-12.44326
 30
0.0
 10
9.6836500000000001
 20
-12.44247
 30
0.0
 10
9.6944400000000002
 20
-12.43848
 30
0.0
 10
9.7018800000000009
 20
-12.431320000000001
 30
0.0
 10
9.7018800000000009
 20
-12.431320000000001
 30
0.0
 10
9.7093700000000016
 20
-12.424160000000001
 30
0.0
 10
9.71312
 20
-12.415270000000001
 30
0.0
 10
9.71312
 20
-12.404570000000001
 30
0.0
 10
9.71312
 20
-12.404570000000001
 30
0.0
 10
9.71312
 20
-12.39662
 30
0.0
 10
9.7110200000000013
 20
-12.389830000000002
 30
0.0
 10
9.7068200000000004
 20
-12.384200000000002
 30
0.0
 10
9.7068200000000004
 20
-12.384200000000002
 30
0.0
 10
9.7026700000000012
 20
-12.37856
 30
0.0
 10
9.6960000000000015
 20
-12.374110000000002
 30
0.0
 10
9.6868200000000009
 20
-12.37082
 30
0.0
  0
SPLINE
  5
3A
100
AcDbEntity
  8
Plan 1
100
AcDbSpline
210
0.0
220
0.0
230
1.0
 70
     1
 71
     3
 72
    24
 73
    20
 74
     0
 42
0.0000000001
 43
0.0000000001
 40
0.0
 40
0.0
 40
0.0
 40
0.0
 40
0.2
 40
0.2
 40
0.2
 40
0.2
 40
0.4
 40
0.4
 40
0.4
 40
0.4
 40
0.6000000000000001
 40
0.6000000000000001
 40
0.6000000000000001
 40
0.6000000000000001
 40
0.8
 40
0.8
 40
0.8
 40
0.8
 40
1.0
 40
1.0
 40
1.0
 40
1.0
 10
9.6517600000000012
 20
-12.442060000000001
 30
0.0
 10
9.6517600000000012
 20
-12.442060000000001
 30
0.0
 10
9.6517600000000012
 20
-12.370570000000001
 30
0.0
 10
9.6517600000000012
 20
-12.370570000000001
 30
0.0
 10
9.6517600000000012
 20
-12.370570000000001
 30
0.0
 10
9.6409700000000011
 20
-12.37152
 30
0.0
 10
9.6328600000000009
 20
-12.374280000000001
 30
0.0
 10
9.6275100000000009
 20
-12.378760000000002
 30
0.0
 10
9.6275100000000009
 20
-12.378760000000002
 30
0.0
 10
9.6191600000000008
 20
-12.385680000000001
 30
0.0
 10
9.61496
 20
-12.39465
 30
0.0
 10
9.61496
 20
-12.405640000000002
 30
0.0
 10
9.61496
 20
-12.405640000000002
 30
0.0
 10
9.61496
 20
-12.415600000000001
 30
0.0
 10
9.6183000000000014
 20
-12.423990000000002
 30
0.0
 10
9.6249600000000015
 20
-12.43078
 30
0.0
 10
9.6249600000000015
 20
-12.43078
 30
0.0
 10
9.6316300000000012
 20
-12.437580000000001
 30
0.0
 10
9.6405600000000007
 20
-12.441320000000001
 30
0.0
 10
9.6517600000000012
 20
-12.442060000000001
 30
0.0
  0
SPLINE
  5
3B
100
AcDbEntity
  8
Plan 1
100
AcDbSpline
210
0.0
220
0.0
230
1.0
 70
     1
 71
     3
 72
   136
 73
   132
 74
     0
 42
0.0000000001
 43
0.0000000001
 40
0.0
 40
0.0
 40
0.0
 40
0.0
 40
0.0303030303030303
 40
0.0303030303030303
 40
0.0303030303030303
 40
0.0303030303030303
 40
0.0606060606060606
 40
0.0606060606060606
 40
0.0606060606060606
 40
0.0606060606060606
 40
0.0909090909090909
 40
0.0909090909090909
 40
0.0909090909090909
 40
0.0909090909090909
 40
0.1212121212121212
 40
0.1212121212121212
 40
0.1212121212121212
 40
0.1212121212121212
 40
0.1515151515151515
 40
0.1515151515151515
 40
0.1515151515151515
 40
0.1515151515151515
 40
0.1818181818181818
 40
0.1818181818181818
 40
0.1818181818181818
 40
0.1818181818181818
 40
0.2121212121212121
 40
0.2121212121212121
 40
0.2121212121212121
 40
0.2121212121212121
 40
0.2424242424242424
 40
0.2424242424242424
 40
0.2424242424242424
 40
0.2424242424242424
 40
0.2727272727272727
 40
0.2727272727272727
 40
0.2727272727272727
 40
0.2727272727272727
 40
0.303030303030303
 40
0.303030303030303
 40
0.303030303030303
 40
0.303030303030303
 40
0.3333333333333333
 40
0.3333333333333333
 40
0.3333333333333333
 40
0.3333333333333333
 40
0.3636363636363635
 40
0.3636363636363635
 40
0.3636363636363635
 40
0.3636363636363635
 40
0.3939393939393938
 40
0.3939393939393938
 40
0.3939393939393938
 40
0.3939393939393938
 40
0.4242424242424241
 40
0.4242424242424241
 40
0.4242424242424241
 40
0.4242424242424241
 40
0.4545454545454544
 40
0.4545454545454544
 40
0.4545454545454544
 40
0.4545454545454544
 40
0.4848484848484846
 40
0.4848484848484846
 40
0.4848484848484846
 40
0.4848484848484846
 40
0.5151515151515149
 40
0.5151515151515149
 40
0.5151515151515149
 40
0.5151515151515149
 40
0.5454545454545452
 40
0.5454545454545452
 40
0.5454545454545452
 40
0.5454545454545452
 40
0.5757575757575755
 40
0.5757575757575755
 40
0.5757575757575755
 40
0.5757575757575755
 40
0.6060606060606057
 40
0.6060606060606057
 40
0.6060606060606057
 40
0.6060606060606057
 40
0.636363636363636
 40
0.636363636363636
 40
0.636363636363636
 40
0.636363636363636
 40
0.6666666666666663
 40
0.6666666666666663
 40
0.6666666666666663
 40
0.6666666666666663
 40
0.6969696969696966
 40
0.6969696969696966
 40
0.6969696969696966
 40
0.6969696969696966
 40
0.7272727272727269
 40
0.7272727272727269
 40
0.7272727272727269
 40
0.7272727272727269
 40
0.7575757575757571
 40
0.7575757575757571
 40
0.7575757575757571
 40
0.7575757575757571
 40
0.7878787878787874
 40
0.7878787878787874
 40
0.7878787878787874
 40
0.7878787878787874
 40
0.8181818181818177
 40
0.8181818181818177
 40
0.8181818181818177
 40
0.8181818181818177
 40
0.848484848484848
 40
0.848484848484848
 40
0.848484848484848
 40
0.848484848484848
 40
0.8787878787878782
 40
0.8787878787878782
 40
0.8787878787878782
 40
0.8787878787878782
 40
0.9090909090909085
 40
0.9090909090909085
 40
0.9090909090909085
 40
0.9090909090909085
 40
0.9393939393939388
 40
0.9393939393939388
 40
0.9393939393939388
 40
0.9393939393939388
 40
0.9696969696969691
 40
0.9696969696969691
 40
0.9696969696969691
 40
0.9696969696969691
 40
1.0
 40
1.0
 40
1.0
 40
1.0
 10
9.6898300000000006
 20
-12.329790000000001
 30
0.0
 10
9.6898300000000006
 20
-12.329790000000001
 30
0.0
 10
9.6864500000000007
 20
-12.308340000000001
 30
0.0
 10
9.6864500000000007
 20
-12.308340000000001
 30
0.0
 10
9.6864500000000007
 20
-12.308340000000001
 30
0.0
 10
9.6950500000000002
 20
-12.307150000000002
 30
0.0
 10
9.7016400000000012
 20
-12.303780000000001
 30
0.0
 10
9.7062500000000007
 20
-12.298260000000001
 30
0.0
 10
9.7062500000000007
 20
-12.298260000000001
 30
0.0
 10
9.71082
 20
-12.292790000000002
 30
0.0
 10
9.71312
 20
-12.28509
 30
0.0
 10
9.71312
 20
-12.275170000000001
 30
0.0
 10
9.71312
 20
-12.275170000000001
 30
0.0
 10
9.71312
 20
-12.265210000000002
 30
0.0
 10
9.7110600000000016
 20
-12.257800000000001
 30
0.0
 10
9.7070300000000014
 20
-12.25299
 30
0.0
 10
9.7070300000000014
 20
-12.25299
 30
0.0
 10
9.7029500000000013
 20
-12.248170000000002
 30
0.0
 10
9.6981800000000007
 20
-12.245740000000001
 30
0.0
 10
9.6927500000000002
 20
-12.245740000000001
 30
0.0
 10
9.6927500000000002
 20
-12.245740000000001
 30
0.0
 10
9.6878100000000007
 20
-12.245740000000001
 30
0.0
 10
9.68398
 20
-12.24788
 30
0.0
 10
9.681140000000001
 20
-12.252160000000002
 30
0.0
 10
9.681140000000001
 20
-12.252160000000002
 30
0.0
 10
9.6792100000000012
 20
-12.255130000000001
 30
0.0
 10
9.6767800000000008
 20
-12.262540000000001
 30
0.0
 10
9.673820000000001
 20
-12.274350000000002
 30
0.0
 10
9.673820000000001
 20
-12.274350000000002
 30
0.0
 10
9.6697800000000012
 20
-12.290230000000001
 30
0.0
 10
9.6663200000000007
 20
-12.301310000000001
 30
0.0
 10
9.6633600000000008
 20
-12.307440000000001
 30
0.0
 10
9.6633600000000008
 20
-12.307440000000001
 30
0.0
 10
9.6604400000000012
 20
-12.31357
 30
0.0
 10
9.6563700000000008
 20
-12.31826
 30
0.0
 10
9.6511800000000001
 20
-12.321430000000001
 30
0.0
 10
9.6511800000000001
 20
-12.321430000000001
 30
0.0
 10
9.6459900000000012
 20
-12.3246
 30
0.0
 10
9.640270000000001
 20
-12.326210000000001
 30
0.0
 10
9.6340200000000014
 20
-12.326210000000001
 30
0.0
 10
9.6340200000000014
 20
-12.326210000000001
 30
0.0
 10
9.6283000000000012
 20
-12.326210000000001
 30
0.0
 10
9.62303
 20
-12.324890000000002
 30
0.0
 10
9.618170000000001
 20
-12.32225
 30
0.0
 10
9.618170000000001
 20
-12.32225
 30
0.0
 10
9.61327
 20
-12.319660000000001
 30
0.0
 10
9.6092400000000016
 20
-12.316080000000001
 30
0.0
 10
9.6060300000000005
 20
-12.311590000000001
 30
0.0
 10
9.6060300000000005
 20
-12.311590000000001
 30
0.0
 10
9.6035600000000017
 20
-12.30822
 30
0.0
 10
9.601420000000001
 20
-12.303610000000001
 30
0.0
 10
9.5996900000000007
 20
-12.29781
 30
0.0
 10
9.5996900000000007
 20
-12.29781
 30
0.0
 10
9.5979600000000005
 20
-12.291960000000001
 30
0.0
 10
9.5971000000000011
 20
-12.285710000000002
 30
0.0
 10
9.5971000000000011
 20
-12.27904
 30
0.0
 10
9.5971000000000011
 20
-12.27904
 30
0.0
 10
9.5971000000000011
 20
-12.269
 30
0.0
 10
9.5985800000000001
 20
-12.260190000000001
 30
0.0
 10
9.6014600000000012
 20
-12.252580000000002
 30
0.0
 10
9.6014600000000012
 20
-12.252580000000002
 30
0.0
 10
9.6043400000000005
 20
-12.244960000000001
 30
0.0
 10
9.60825
 20
-12.239360000000001
 30
0.0
 10
9.6131900000000012
 20
-12.235740000000002
 30
0.0
 10
9.6131900000000012
 20
-12.235740000000002
 30
0.0
 10
9.618170000000001
 20
-12.232120000000002
 30
0.0
 10
9.6247600000000002
 20
-12.229650000000001
 30
0.0
 10
9.6330300000000015
 20
-12.228290000000001
 30
0.0
 10
9.6330300000000015
 20
-12.228290000000001
 30
0.0
 10
9.6330300000000015
 20
-12.228290000000001
 30
0.0
 10
9.6359500000000011
 20
-12.249490000000002
 30
0.0
 10
9.6359500000000011
 20
-12.249490000000002
 30
0.0
 10
9.6359500000000011
 20
-12.249490000000002
 30
0.0
 10
9.6293700000000015
 20
-12.250480000000001
 30
0.0
 10
9.6242200000000011
 20
-12.25328
 30
0.0
 10
9.6205200000000008
 20
-12.257890000000002
 30
0.0
 10
9.6205200000000008
 20
-12.257890000000002
 30
0.0
 10
9.616810000000001
 20
-12.262490000000001
 30
0.0
 10
9.61496
 20
-12.26904
 30
0.0
 10
9.61496
 20
-12.277480000000001
 30
0.0
 10
9.61496
 20
-12.277480000000001
 30
0.0
 10
9.61496
 20
-12.28744
 30
0.0
 10
9.6166100000000014
 20
-12.294560000000001
 30
0.0
 10
9.6199000000000012
 20
-12.298800000000002
 30
0.0
 10
9.6199000000000012
 20
-12.298800000000002
 30
0.0
 10
9.623190000000001
 20
-12.303080000000001
 30
0.0
 10
9.6270600000000002
 20
-12.30522
 30
0.0
 10
9.6314700000000002
 20
-12.30522
 30
0.0
 10
9.6314700000000002
 20
-12.30522
 30
0.0
 10
9.634310000000001
 20
-12.30522
 30
0.0
 10
9.6368200000000002
 20
-12.304310000000001
 30
0.0
 10
9.6390800000000016
 20
-12.30254
 30
0.0
 10
9.6390800000000016
 20
-12.30254
 30
0.0
 10
9.6414300000000015
 20
-12.300770000000002
 30
0.0
 10
9.643320000000001
 20
-12.298010000000001
 30
0.0
 10
9.6448800000000006
 20
-12.294230000000001
 30
0.0
 10
9.6448800000000006
 20
-12.294230000000001
 30
0.0
 10
9.6456600000000012
 20
-12.292050000000001
 30
0.0
 10
9.6475200000000001
 20
-12.285670000000001
 30
0.0
 10
9.6504000000000012
 20
-12.27505
 30
0.0
 10
9.6504000000000012
 20
-12.27505
 30
0.0
 10
9.6545100000000001
 20
-12.2597
 30
0.0
 10
9.6578500000000016
 20
-12.249000000000001
 30
0.0
 10
9.6604800000000015
 20
-12.24295
 30
0.0
 10
9.6604800000000015
 20
-12.24295
 30
0.0
 10
9.6630700000000012
 20
-12.23685
 30
0.0
 10
9.6669
 20
-12.232080000000002
 30
0.0
 10
9.6718800000000016
 20
-12.228620000000001
 30
0.0
 10
9.6718800000000016
 20
-12.228620000000001
 30
0.0
 10
9.6768600000000013
 20
-12.22517
 30
0.0
 10
9.6830300000000005
 20
-12.223440000000002
 30
0.0
 10
9.6904400000000006
 20
-12.223440000000002
 30
0.0
 10
9.6904400000000006
 20
-12.223440000000002
 30
0.0
 10
9.6976900000000015
 20
-12.223440000000002
 30
0.0
 10
9.7044800000000002
 20
-12.225580000000001
 30
0.0
 10
9.7109000000000005
 20
-12.229780000000002
 30
0.0
 10
9.7109000000000005
 20
-12.229780000000002
 30
0.0
 10
9.7172800000000006
 20
-12.234010000000001
 30
0.0
 10
9.7222200000000001
 20
-12.240110000000001
 30
0.0
 10
9.7257100000000012
 20
-12.248050000000001
 30
0.0
 10
9.7257100000000012
 20
-12.248050000000001
 30
0.0
 10
9.7292100000000001
 20
-12.255990000000001
 30
0.0
 10
9.7309400000000004
 20
-12.26501
 30
0.0
 10
9.7309400000000004
 20
-12.27505
 30
0.0
 10
9.7309400000000004
 20
-12.27505
 30
0.0
 10
9.7309400000000004
 20
-12.291720000000002
 30
0.0
 10
9.7274800000000017
 20
-12.304390000000001
 30
0.0
 10
9.7205700000000004
 20
-12.313120000000001
 30
0.0
 10
9.7205700000000004
 20
-12.313120000000001
 30
0.0
 10
9.7136600000000008
 20
-12.321840000000002
 30
0.0
 10
9.7034100000000016
 20
-12.327400000000001
 30
0.0
 10
9.6898300000000006
 20
-12.329790000000001
 30
0.0
  0
SPLINE
  5
3C
100
AcDbEntity
  8
Plan 1
100
AcDbSpline
210
0.0
220
0.0
230
1.0
 70
     1
 71
     3
 72
    60
 73
    56
 74
     0
 42
0.0000000001
 43
0.0000000001
 40
0.0
 40
0.0
 40
0.0
 40
0.0
 40
0.0714285714285714
 40
0.0714285714285714
 40
0.0714285714285714
 40
0.0714285714285714
 40
0.1428571428571429
 40
0.1428571428571429
 40
0.1428571428571429
 40
0.1428571428571429
 40
0.2142857142857143
 40
0.2142857142857143
 40
0.2142857142857143
 40
0.2142857142857143
 40
0.2857142857142857
 40
0.2857142857142857
 40
0.2857142857142857
 40
0.2857142857142857
 40
0.3571428571428571
 40
0.3571428571428571
 40
0.3571428571428571
 40
0.3571428571428571
 40
0.4285714285714285
 40
0.4285714285714285
 40
0.4285714285714285
 40
0.4285714285714285
 40
0.4999999999999999
 40
0.4999999999999999
 40
0.4999999999999999
 40
0.4999999999999999
 40
0.5714285714285713
 40
0.5714285714285713
 40
0.5714285714285713
 40
0.5714285714285713
 40
0.6428571428571427
 40
0.6428571428571427
 40
0.6428571428571427
 40
0.6428571428571427
 40
0.7142857142857141
 40
0.7142857142857141
 40
0.7142857142857141
 40
0.7142857142857141
 40
0.7857142857142855
 40
0.7857142857142855
 40
0.7857142857142855
 40
0.7857142857142855
 40
0.8571428571428569
 40
0.8571428571428569
 40
0.8571428571428569
 40
0.8571428571428569
 40
0.9285714285714283
 40
0.9285714285714283
 40
0.9285714285714283
 40
0.9285714285714283
 40
1.0
 40
1.0
 40
1.0
 40
1.0
 10
9.728060000000001
 20
-12.127250000000002
 30
0.0
 10
9.728060000000001
 20
-12.127250000000002
 30
0.0
 10
9.5512900000000016
 20
-12.127250000000002
 30
0.0
 10
9.5512900000000016
 20
-12.127250000000002
 30
0.0
 10
9.5512900000000016
 20
-12.127250000000002
 30
0.0
 10
9.5512900000000016
 20
-12.127250000000002
 30
0.0
 10
9.5512900000000016
 20
-12.060910000000002
 30
0.0
 10
9.5512900000000016
 20
-12.060910000000002
 30
0.0
 10
9.5512900000000016
 20
-12.060910000000002
 30
0.0
 10
9.5512900000000016
 20
-12.047410000000001
 30
0.0
 10
9.5531000000000006
 20
-12.036580000000001
 30
0.0
 10
9.5566400000000016
 20
-12.028440000000002
 30
0.0
 10
9.5566400000000016
 20
-12.028440000000002
 30
0.0
 10
9.5602200000000011
 20
-12.020240000000001
 30
0.0
 10
9.5657399999999999
 20
-12.013870000000001
 30
0.0
 10
9.5731900000000003
 20
-12.009260000000001
 30
0.0
 10
9.5731900000000003
 20
-12.009260000000001
 30
0.0
 10
9.5806000000000004
 20
-12.004650000000002
 30
0.0
 10
9.5883700000000012
 20
-12.002300000000002
 30
0.0
 10
9.5965199999999999
 20
-12.002300000000002
 30
0.0
 10
9.5965199999999999
 20
-12.002300000000002
 30
0.0
 10
9.6040500000000009
 20
-12.002300000000002
 30
0.0
 10
9.6111800000000009
 20
-12.00436
 30
0.0
 10
9.6178400000000011
 20
-12.008470000000001
 30
0.0
 10
9.6178400000000011
 20
-12.008470000000001
 30
0.0
 10
9.6245100000000008
 20
-12.012550000000001
 30
0.0
 10
9.629900000000001
 20
-12.01876
 30
0.0
 10
9.6340200000000014
 20
-12.027040000000001
 30
0.0
 10
9.6340200000000014
 20
-12.027040000000001
 30
0.0
 10
9.6371400000000005
 20
-12.016340000000001
 30
0.0
 10
9.6425000000000001
 20
-12.008140000000001
 30
0.0
 10
9.650030000000001
 20
-12.00238
 30
0.0
 10
9.650030000000001
 20
-12.00238
 30
0.0
 10
9.6576000000000004
 20
-11.996620000000002
 30
0.0
 10
9.6665300000000016
 20
-11.993740000000001
 30
0.0
 10
9.6768200000000011
 20
-11.993740000000001
 30
0.0
 10
9.6768200000000011
 20
-11.993740000000001
 30
0.0
 10
9.6850900000000006
 20
-11.993740000000001
 30
0.0
 10
9.6927900000000005
 20
-11.995510000000001
 30
0.0
 10
9.6999100000000009
 20
-11.99901
 30
0.0
 10
9.6999100000000009
 20
-11.99901
 30
0.0
 10
9.7070300000000014
 20
-12.002510000000001
 30
0.0
 10
9.7125000000000004
 20
-12.006830000000001
 30
0.0
 10
9.7163700000000013
 20
-12.011970000000002
 30
0.0
 10
9.7163700000000013
 20
-12.011970000000002
 30
0.0
 10
9.7202400000000004
 20
-12.01712
 30
0.0
 10
9.7231200000000015
 20
-12.023580000000001
 30
0.0
 10
9.7251000000000012
 20
-12.031320000000001
 30
0.0
 10
9.7251000000000012
 20
-12.031320000000001
 30
0.0
 10
9.7270700000000012
 20
-12.039050000000001
 30
0.0
 10
9.728060000000001
 20
-12.04856
 30
0.0
 10
9.728060000000001
 20
-12.059840000000001
 30
0.0
 10
9.728060000000001
 20
-12.059840000000001
 30
0.0
 10
9.728060000000001
 20
-12.059840000000001
 30
0.0
 10
9.728060000000001
 20
-12.127250000000002
 30
0.0
 10
9.728060000000001
 20
-12.127250000000002
 30
0.0
  0
SPLINE
  5
3D
100
AcDbEntity
  8
Plan 1
100
AcDbSpline
210
0.0
220
0.0
230
1.0
 70
     1
 71
     3
 72
    40
 73
    36
 74
     0
 42
0.0000000001
 43
0.0000000001
 40
0.0
 40
0.0
 40
0.0
 40
0.0
 40
0.1111111111111111
 40
0.1111111111111111
 40
0.1111111111111111
 40
0.1111111111111111
 40
0.2222222222222222
 40
0.2222222222222222
 40
0.2222222222222222
 40
0.2222222222222222
 40
0.3333333333333333
 40
0.3333333333333333
 40
0.3333333333333333
 40
0.3333333333333333
 40
0.4444444444444444
 40
0.4444444444444444
 40
0.4444444444444444
 40
0.4444444444444444
 40
0.5555555555555556
 40
0.5555555555555556
 40
0.5555555555555556
 40
0.5555555555555556
 40
0.6666666666666667
 40
0.6666666666666667
 40
0.6666666666666667
 40
0.6666666666666667
 40
0.7777777777777779
 40
0.7777777777777779
 40
0.7777777777777779
 40
0.7777777777777779
 40
0.8888888888888891
 40
0.8888888888888891
 40
0.8888888888888891
 40
0.8888888888888891
 40
1.0
 40
1.0
 40
1.0
 40
1.0
 10
9.6255800000000011
 20
-12.10383
 30
0.0
 10
9.6255800000000011
 20
-12.10383
 30
0.0
 10
9.6255800000000011
 20
-12.065600000000002
 30
0.0
 10
9.6255800000000011
 20
-12.065600000000002
 30
0.0
 10
9.6255800000000011
 20
-12.065600000000002
 30
0.0
 10
9.6255800000000011
 20
-12.05527
 30
0.0
 10
9.624880000000001
 20
-12.047820000000002
 30
0.0
 10
9.623520000000001
 20
-12.043290000000001
 30
0.0
 10
9.623520000000001
 20
-12.043290000000001
 30
0.0
 10
9.6217500000000005
 20
-12.037370000000001
 30
0.0
 10
9.6188300000000009
 20
-12.03288
 30
0.0
 10
9.6147100000000005
 20
-12.02988
 30
0.0
 10
9.6147100000000005
 20
-12.02988
 30
0.0
 10
9.6106000000000016
 20
-12.026870000000001
 30
0.0
 10
9.6054500000000012
 20
-12.025350000000001
 30
0.0
 10
9.5992800000000003
 20
-12.025350000000001
 30
0.0
 10
9.5992800000000003
 20
-12.025350000000001
 30
0.0
 10
9.5934400000000011
 20
-12.025350000000001
 30
0.0
 10
9.5882500000000004
 20
-12.026750000000002
 30
0.0
 10
9.5838100000000015
 20
-12.02955
 30
0.0
 10
9.5838100000000015
 20
-12.02955
 30
0.0
 10
9.5793200000000009
 20
-12.032390000000001
 30
0.0
 10
9.5762700000000009
 20
-12.036420000000001
 30
0.0
 10
9.5746300000000009
 20
-12.04161
 30
0.0
 10
9.5746300000000009
 20
-12.04161
 30
0.0
 10
9.5729800000000012
 20
-12.046830000000002
 30
0.0
 10
9.5721600000000002
 20
-12.055800000000001
 30
0.0
 10
9.5721600000000002
 20
-12.068520000000001
 30
0.0
 10
9.5721600000000002
 20
-12.068520000000001
 30
0.0
 10
9.5721600000000002
 20
-12.068520000000001
 30
0.0
 10
9.5721600000000002
 20
-12.10383
 30
0.0
 10
9.5721600000000002
 20
-12.10383
 30
0.0
 10
9.5721600000000002
 20
-12.10383
 30
0.0
 10
9.5721600000000002
 20
-12.10383
 30
0.0
 10
9.6255800000000011
 20
-12.10383
 30
0.0
 10
9.6255800000000011
 20
-12.10383
 30
0.0
  0
SPLINE
  5
3E
100
AcDbEntity
  8
Plan 1
100
AcDbSpline
210
0.0
220
0.0
230
1.0
 70
     1
 71
     3
 72
    44
 73
    40
 74
     0
 42
0.0000000001
 43
0.0000000001
 40
0.0
 40
0.0
 40
0.0
 40
0.0
 40
0.1
 40
0.1
 40
0.1
 40
0.1
 40
0.2
 40
0.2
 40
0.2
 40
0.2
 40
0.3
 40
0.3
 40
0.3
 40
0.3
 40
0.4
 40
0.4
 40
0.4
 40
0.4
 40
0.5
 40
0.5
 40
0.5
 40
0.5
 40
0.6
 40
0.6
 40
0.6
 40
0.6
 40
0.7
 40
0.7
 40
0.7
 40
0.7
 40
0.7999999999999999
 40
0.7999999999999999
 40
0.7999999999999999
 40
0.7999999999999999
 40
0.8999999999999999
 40
0.8999999999999999
 40
0.8999999999999999
 40
0.8999999999999999
 40
1.0
 40
1.0
 40
1.0
 40
1.0
 10
9.7071900000000007
 20
-12.10383
 30
0.0
 10
9.7071900000000007
 20
-12.10383
 30
0.0
 10
9.7071900000000007
 20
-12.059840000000001
 30
0.0
 10
9.7071900000000007
 20
-12.059840000000001
 30
0.0
 10
9.7071900000000007
 20
-12.059840000000001
 30
0.0
 10
9.7071900000000007
 20
-12.05226
 30
0.0
 10
9.7069100000000006
 20
-12.04696
 30
0.0
 10
9.7063700000000015
 20
-12.04391
 30
0.0
 10
9.7063700000000015
 20
-12.04391
 30
0.0
 10
9.7053800000000017
 20
-12.03852
 30
0.0
 10
9.7037800000000001
 20
-12.034030000000001
 30
0.0
 10
9.7015100000000007
 20
-12.030410000000002
 30
0.0
 10
9.7015100000000007
 20
-12.030410000000002
 30
0.0
 10
9.6992900000000013
 20
-12.026790000000002
 30
0.0
 10
9.6960000000000015
 20
-12.02383
 30
0.0
 10
9.6917200000000001
 20
-12.02148
 30
0.0
 10
9.6917200000000001
 20
-12.02148
 30
0.0
 10
9.6874000000000002
 20
-12.019170000000001
 30
0.0
 10
9.6824600000000007
 20
-12.017980000000001
 30
0.0
 10
9.6768200000000011
 20
-12.017980000000001
 30
0.0
 10
9.6768200000000011
 20
-12.017980000000001
 30
0.0
 10
9.6702300000000001
 20
-12.017980000000001
 30
0.0
 10
9.6645099999999999
 20
-12.019670000000001
 30
0.0
 10
9.6596200000000003
 20
-12.023040000000002
 30
0.0
 10
9.6596200000000003
 20
-12.023040000000002
 30
0.0
 10
9.6547600000000013
 20
-12.026420000000002
 30
0.0
 10
9.6513400000000011
 20
-12.031110000000002
 30
0.0
 10
9.6493700000000011
 20
-12.037120000000002
 30
0.0
 10
9.6493700000000011
 20
-12.037120000000002
 30
0.0
 10
9.6474299999999999
 20
-12.043090000000001
 30
0.0
 10
9.6464500000000015
 20
-12.051730000000001
 30
0.0
 10
9.6464500000000015
 20
-12.062970000000002
 30
0.0
 10
9.6464500000000015
 20
-12.062970000000002
 30
0.0
 10
9.6464500000000015
 20
-12.062970000000002
 30
0.0
 10
9.6464500000000015
 20
-12.10383
 30
0.0
 10
9.6464500000000015
 20
-12.10383
 30
0.0
 10
9.6464500000000015
 20
-12.10383
 30
0.0
 10
9.6464500000000015
 20
-12.10383
 30
0.0
 10
9.7071900000000007
 20
-12.10383
 30
0.0
 10
9.7071900000000007
 20
-12.10383
 30
0.0
  0
SPLINE
  5
3F
100
AcDbEntity
  8
Plan 1
100
AcDbSpline
210
0.0
220
0.0
230
1.0
 70
     1
 71
     3
 72
    36
 73
    32
 74
     0
 42
0.0000000001
 43
0.0000000001
 40
0.0
 40
0.0
 40
0.0
 40
0.0
 40
0.125
 40
0.125
 40
0.125
 40
0.125
 40
0.25
 40
0.25
 40
0.25
 40
0.25
 40
0.375
 40
0.375
 40
0.375
 40
0.375
 40
0.5
 40
0.5
 40
0.5
 40
0.5
 40
0.625
 40
0.625
 40
0.625
 40
0.625
 40
0.75
 40
0.75
 40
0.75
 40
0.75
 40
0.875
 40
0.875
 40
0.875
 40
0.875
 40
1.0
 40
1.0
 40
1.0
 40
1.0
 10
9.728060000000001
 20
-11.980980000000001
 30
0.0
 10
9.728060000000001
 20
-11.980980000000001
 30
0.0
 10
9.5512900000000016
 20
-11.913070000000001
 30
0.0
 10
9.5512900000000016
 20
-11.913070000000001
 30
0.0
 10
9.5512900000000016
 20
-11.913070000000001
 30
0.0
 10
9.5512900000000016
 20
-11.913070000000001
 30
0.0
 10
9.5512900000000016
 20
-11.887880000000001
 30
0.0
 10
9.5512900000000016
 20
-11.887880000000001
 30
0.0
 10
9.5512900000000016
 20
-11.887880000000001
 30
0.0
 10
9.5512900000000016
 20
-11.887880000000001
 30
0.0
 10
9.728060000000001
 20
-11.815530000000001
 30
0.0
 10
9.728060000000001
 20
-11.815530000000001
 30
0.0
 10
9.728060000000001
 20
-11.815530000000001
 30
0.0
 10
9.728060000000001
 20
-11.815530000000001
 30
0.0
 10
9.728060000000001
 20
-11.842200000000002
 30
0.0
 10
9.728060000000001
 20
-11.842200000000002
 30
0.0
 10
9.728060000000001
 20
-11.842200000000002
 30
0.0
 10
9.728060000000001
 20
-11.842200000000002
 30
0.0
 10
9.6745200000000011
 20
-11.862820000000001
 30
0.0
 10
9.6745200000000011
 20
-11.862820000000001
 30
0.0
 10
9.6745200000000011
 20
-11.862820000000001
 30
0.0
 10
9.6745200000000011
 20
-11.862820000000001
 30
0.0
 10
9.6745200000000011
 20
-11.93674
 30
0.0
 10
9.6745200000000011
 20
-11.93674
 30
0.0
 10
9.6745200000000011
 20
-11.93674
 30
0.0
 10
9.6745200000000011
 20
-11.93674
 30
0.0
 10
9.728060000000001
 20
-11.95612
 30
0.0
 10
9.728060000000001
 20
-11.95612
 30
0.0
 10
9.728060000000001
 20
-11.95612
 30
0.0
 10
9.728060000000001
 20
-11.95612
 30
0.0
 10
9.728060000000001
 20
-11.980980000000001
 30
0.0
 10
9.728060000000001
 20
-11.980980000000001
 30
0.0
  0
SPLINE
  5
40
100
AcDbEntity
  8
Plan 1
100
AcDbSpline
210
0.0
220
0.0
230
1.0
 70
     1
 71
     3
 72
    24
 73
    20
 74
     0
 42
0.0000000001
 43
0.0000000001
 40
0.0
 40
0.0
 40
0.0
 40
0.0
 40
0.2
 40
0.2
 40
0.2
 40
0.2
 40
0.4
 40
0.4
 40
0.4
 40
0.4
 40
0.6000000000000001
 40
0.6000000000000001
 40
0.6000000000000001
 40
0.6000000000000001
 40
0.8
 40
0.8
 40
0.8
 40
0.8
 40
1.0
 40
1.0
 40
1.0
 40
1.0
 10
9.6554600000000015
 20
-11.92999
 30
0.0
 10
9.6554600000000015
 20
-11.92999
 30
0.0
 10
9.6554600000000015
 20
-11.87002
 30
0.0
 10
9.6554600000000015
 20
-11.87002
 30
0.0
 10
9.6554600000000015
 20
-11.87002
 30
0.0
 10
9.6554600000000015
 20
-11.87002
 30
0.0
 10
9.6065200000000015
 20
-11.888500000000001
 30
0.0
 10
9.6065200000000015
 20
-11.888500000000001
 30
0.0
 10
9.6065200000000015
 20
-11.888500000000001
 30
0.0
 10
9.5916700000000006
 20
-11.894100000000002
 30
0.0
 10
9.57944
 20
-11.898300000000001
 30
0.0
 10
9.5698500000000006
 20
-11.901010000000001
 30
0.0
 10
9.5698500000000006
 20
-11.901010000000001
 30
0.0
 10
9.5812100000000004
 20
-11.903280000000001
 30
0.0
 10
9.5924500000000013
 20
-11.906450000000001
 30
0.0
 10
9.6036400000000004
 20
-11.91056
 30
0.0
 10
9.6036400000000004
 20
-11.91056
 30
0.0
 10
9.6036400000000004
 20
-11.91056
 30
0.0
 10
9.6554600000000015
 20
-11.92999
 30
0.0
 10
9.6554600000000015
 20
-11.92999
 30
0.0
  0
SPLINE
  5
41
100
AcDbEntity
  8
Plan 1
100
AcDbSpline
210
0.0
220
0.0
230
1.0
 70
     1
 71
     3
 72
    80
 73
    76
 74
     0
 42
0.0000000001
 43
0.0000000001
 40
0.0
 40
0.0
 40
0.0
 40
0.0
 40
0.0526315789473684
 40
0.0526315789473684
 40
0.0526315789473684
 40
0.0526315789473684
 40
0.1052631578947368
 40
0.1052631578947368
 40
0.1052631578947368
 40
0.1052631578947368
 40
0.1578947368421053
 40
0.1578947368421053
 40
0.1578947368421053
 40
0.1578947368421053
 40
0.2105263157894737
 40
0.2105263157894737
 40
0.2105263157894737
 40
0.2105263157894737
 40
0.2631578947368421
 40
0.2631578947368421
 40
0.2631578947368421
 40
0.2631578947368421
 40
0.3157894736842105
 40
0.3157894736842105
 40
0.3157894736842105
 40
0.3157894736842105
 40
0.3684210526315789
 40
0.3684210526315789
 40
0.3684210526315789
 40
0.3684210526315789
 40
0.4210526315789474
 40
0.4210526315789474
 40
0.4210526315789474
 40
0.4210526315789474
 40
0.4736842105263158
 40
0.4736842105263158
 40
0.4736842105263158
 40
0.4736842105263158
 40
0.5263157894736842
 40
0.5263157894736842
 40
0.5263157894736842
 40
0.5263157894736842
 40
0.5789473684210527
 40
0.5789473684210527
 40
0.5789473684210527
 40
0.5789473684210527
 40
0.631578947368421
 40
0.631578947368421
 40
0.631578947368421
 40
0.631578947368421
 40
0.6842105263157894
 40
0.6842105263157894
 40
0.6842105263157894
 40
0.6842105263157894
 40
0.7368421052631577
 40
0.7368421052631577
 40
0.7368421052631577
 40
0.7368421052631577
 40
0.7894736842105261
 40
0.7894736842105261
 40
0.7894736842105261
 40
0.7894736842105261
 40
0.8421052631578945
 40
0.8421052631578945
 40
0.8421052631578945
 40
0.8421052631578945
 40
0.8947368421052628
 40
0.8947368421052628
 40
0.8947368421052628
 40
0.8947368421052628
 40
0.9473684210526312
 40
0.9473684210526312
 40
0.9473684210526312
 40
0.9473684210526312
 40
1.0
 40
1.0
 40
1.0
 40
1.0
 10
9.728060000000001
 20
-11.796470000000001
 30
0.0
 10
9.728060000000001
 20
-11.796470000000001
 30
0.0
 10
9.5512900000000016
 20
-11.796470000000001
 30
0.0
 10
9.5512900000000016
 20
-11.796470000000001
 30
0.0
 10
9.5512900000000016
 20
-11.796470000000001
 30
0.0
 10
9.5512900000000016
 20
-11.796470000000001
 30
0.0
 10
9.5512900000000016
 20
-11.718110000000001
 30
0.0
 10
9.5512900000000016
 20
-11.718110000000001
 30
0.0
 10
9.5512900000000016
 20
-11.718110000000001
 30
0.0
 10
9.5512900000000016
 20
-11.702350000000001
 30
0.0
 10
9.5529000000000011
 20
-11.690370000000001
 30
0.0
 10
9.5560700000000001
 20
-11.682180000000001
 30
0.0
 10
9.5560700000000001
 20
-11.682180000000001
 30
0.0
 10
9.5592400000000008
 20
-11.673990000000002
 30
0.0
 10
9.5648300000000006
 20
-11.667450000000001
 30
0.0
 10
9.5728600000000004
 20
-11.662510000000001
 30
0.0
 10
9.5728600000000004
 20
-11.662510000000001
 30
0.0
 10
9.5809200000000008
 20
-11.657610000000002
 30
0.0
 10
9.5898099999999999
 20
-11.655180000000001
 30
0.0
 10
9.5995300000000015
 20
-11.655180000000001
 30
0.0
 10
9.5995300000000015
 20
-11.655180000000001
 30
0.0
 10
9.6120800000000006
 20
-11.655180000000001
 30
0.0
 10
9.6226200000000013
 20
-11.659220000000001
 30
0.0
 10
9.6312200000000008
 20
-11.667370000000002
 30
0.0
 10
9.6312200000000008
 20
-11.667370000000002
 30
0.0
 10
9.6398200000000003
 20
-11.675470000000001
 30
0.0
 10
9.645290000000001
 20
-11.688030000000001
 30
0.0
 10
9.6476400000000009
 20
-11.704980000000001
 30
0.0
 10
9.6476400000000009
 20
-11.704980000000001
 30
0.0
 10
9.6506000000000007
 20
-11.698770000000001
 30
0.0
 10
9.6535299999999999
 20
-11.694080000000001
 30
0.0
 10
9.6564500000000013
 20
-11.69087
 30
0.0
 10
9.6564500000000013
 20
-11.69087
 30
0.0
 10
9.662700000000001
 20
-11.684030000000002
 30
0.0
 10
9.67056
 20
-11.677570000000001
 30
0.0
 10
9.6799500000000016
 20
-11.67144
 30
0.0
 10
9.6799500000000016
 20
-11.67144
 30
0.0
 10
9.6799500000000016
 20
-11.67144
 30
0.0
 10
9.728060000000001
 20
-11.640700000000001
 30
0.0
 10
9.728060000000001
 20
-11.640700000000001
 30
0.0
 10
9.728060000000001
 20
-11.640700000000001
 30
0.0
 10
9.728060000000001
 20
-11.640700000000001
 30
0.0
 10
9.728060000000001
 20
-11.670120000000001
 30
0.0
 10
9.728060000000001
 20
-11.670120000000001
 30
0.0
 10
9.728060000000001
 20
-11.670120000000001
 30
0.0
 10
9.728060000000001
 20
-11.670120000000001
 30
0.0
 10
9.6912700000000012
 20
-11.6935
 30
0.0
 10
9.6912700000000012
 20
-11.6935
 30
0.0
 10
9.6912700000000012
 20
-11.6935
 30
0.0
 10
9.6806900000000002
 20
-11.700330000000001
 30
0.0
 10
9.6725400000000015
 20
-11.705970000000001
 30
0.0
 10
9.6669400000000003
 20
-11.710420000000001
 30
0.0
 10
9.6669400000000003
 20
-11.710420000000001
 30
0.0
 10
9.6613000000000007
 20
-11.714820000000001
 30
0.0
 10
9.657350000000001
 20
-11.718770000000001
 30
0.0
 10
9.6551300000000015
 20
-11.722270000000002
 30
0.0
 10
9.6551300000000015
 20
-11.722270000000002
 30
0.0
 10
9.6528700000000001
 20
-11.725770000000001
 30
0.0
 10
9.6513000000000009
 20
-11.729310000000002
 30
0.0
 10
9.6504000000000012
 20
-11.732930000000001
 30
0.0
 10
9.6504000000000012
 20
-11.732930000000001
 30
0.0
 10
9.6498600000000003
 20
-11.735600000000002
 30
0.0
 10
9.6495700000000006
 20
-11.739920000000001
 30
0.0
 10
9.6495700000000006
 20
-11.745970000000002
 30
0.0
 10
9.6495700000000006
 20
-11.745970000000002
 30
0.0
 10
9.6495700000000006
 20
-11.745970000000002
 30
0.0
 10
9.6495700000000006
 20
-11.773100000000001
 30
0.0
 10
9.6495700000000006
 20
-11.773100000000001
 30
0.0
 10
9.6495700000000006
 20
-11.773100000000001
 30
0.0
 10
9.6495700000000006
 20
-11.773100000000001
 30
0.0
 10
9.728060000000001
 20
-11.773100000000001
 30
0.0
 10
9.728060000000001
 20
-11.773100000000001
 30
0.0
 10
9.728060000000001
 20
-11.773100000000001
 30
0.0
 10
9.728060000000001
 20
-11.773100000000001
 30
0.0
 10
9.728060000000001
 20
-11.796470000000001
 30
0.0
 10
9.728060000000001
 20
-11.796470000000001
 30
0.0
  0
SPLINE
  5
42
100
AcDbEntity
  8
Plan 1
100
AcDbSpline
210
0.0
220
0.0
230
1.0
 70
     1
 71
     3
 72
    36
 73
    32
 74
     0
 42
0.0000000001
 43
0.0000000001
 40
0.0
 40
0.0
 40
0.0
 40
0.0
 40
0.125
 40
0.125
 40
0.125
 40
0.125
 40
0.25
 40
0.25
 40
0.25
 40
0.25
 40
0.375
 40
0.375
 40
0.375
 40
0.375
 40
0.5
 40
0.5
 40
0.5
 40
0.5
 40
0.625
 40
0.625
 40
0.625
 40
0.625
 40
0.75
 40
0.75
 40
0.75
 40
0.75
 40
0.875
 40
0.875
 40
0.875
 40
0.875
 40
1.0
 40
1.0
 40
1.0
 40
1.0
 10
9.6293300000000013
 20
-11.773100000000001
 30
0.0
 10
9.6293300000000013
 20
-11.773100000000001
 30
0.0
 10
9.6293300000000013
 20
-11.722800000000001
 30
0.0
 10
9.6293300000000013
 20
-11.722800000000001
 30
0.0
 10
9.6293300000000013
 20
-11.722800000000001
 30
0.0
 10
9.6293300000000013
 20
-11.712140000000002
 30
0.0
 10
9.628210000000001
 20
-11.703750000000001
 30
0.0
 10
9.6259900000000016
 20
-11.697740000000001
 30
0.0
 10
9.6259900000000016
 20
-11.697740000000001
 30
0.0
 10
9.6237700000000004
 20
-11.691690000000001
 30
0.0
 10
9.6202300000000012
 20
-11.68712
 30
0.0
 10
9.6153700000000004
 20
-11.683990000000001
 30
0.0
 10
9.6153700000000004
 20
-11.683990000000001
 30
0.0
 10
9.6105200000000011
 20
-11.680860000000001
 30
0.0
 10
9.6052500000000016
 20
-11.679300000000001
 30
0.0
 10
9.5995300000000015
 20
-11.679300000000001
 30
0.0
 10
9.5995300000000015
 20
-11.679300000000001
 30
0.0
 10
9.59117
 20
-11.679300000000001
 30
0.0
 10
9.5843000000000007
 20
-11.682310000000001
 30
0.0
 10
9.5789100000000005
 20
-11.688400000000001
 30
0.0
 10
9.5789100000000005
 20
-11.688400000000001
 30
0.0
 10
9.5735200000000003
 20
-11.694450000000002
 30
0.0
 10
9.5708400000000005
 20
-11.704040000000001
 30
0.0
 10
9.5708400000000005
 20
-11.717170000000001
 30
0.0
 10
9.5708400000000005
 20
-11.717170000000001
 30
0.0
 10
9.5708400000000005
 20
-11.717170000000001
 30
0.0
 10
9.5708400000000005
 20
-11.773100000000001
 30
0.0
 10
9.5708400000000005
 20
-11.773100000000001
 30
0.0
 10
9.5708400000000005
 20
-11.773100000000001
 30
0.0
 10
9.5708400000000005
 20
-11.773100000000001
 30
0.0
 10
9.6293300000000013
 20
-11.773100000000001
 30
0.0
 10
9.6293300000000013
 20
-11.773100000000001
 30
0.0
  0
SPLINE
  5
43
100
AcDbEntity
  8
Plan 1
100
AcDbSpline
210
0.0
220
0.0
230
1.0
 70
     1
 71
     3
 72
    80
 73
    76
 74
     0
 42
0.0000000001
 43
0.0000000001
 40
0.0
 40
0.0
 40
0.0
 40
0.0
 40
0.0526315789473684
 40
0.0526315789473684
 40
0.0526315789473684
 40
0.0526315789473684
 40
0.1052631578947368
 40
0.1052631578947368
 40
0.1052631578947368
 40
0.1052631578947368
 40
0.1578947368421053
 40
0.1578947368421053
 40
0.1578947368421053
 40
0.1578947368421053
 40
0.2105263157894737
 40
0.2105263157894737
 40
0.2105263157894737
 40
0.2105263157894737
 40
0.2631578947368421
 40
0.2631578947368421
 40
0.2631578947368421
 40
0.2631578947368421
 40
0.3157894736842105
 40
0.3157894736842105
 40
0.3157894736842105
 40
0.3157894736842105
 40
0.3684210526315789
 40
0.3684210526315789
 40
0.3684210526315789
 40
0.3684210526315789
 40
0.4210526315789474
 40
0.4210526315789474
 40
0.4210526315789474
 40
0.4210526315789474
 40
0.4736842105263158
 40
0.4736842105263158
 40
0.4736842105263158
 40
0.4736842105263158
 40
0.5263157894736842
 40
0.5263157894736842
 40
0.5263157894736842
 40
0.5263157894736842
 40
0.5789473684210527
 40
0.5789473684210527
 40
0.5789473684210527
 40
0.5789473684210527
 40
0.631578947368421
 40
0.631578947368421
 40
0.631578947368421
 40
0.631578947368421
 40
0.6842105263157894
 40
0.6842105263157894
 40
0.6842105263157894
 40
0.6842105263157894
 40
0.7368421052631577
 40
0.7368421052631577
 40
0.7368421052631577
 40
0.7368421052631577
 40
0.7894736842105261
 40
0.7894736842105261
 40
0.7894736842105261
 40
0.7894736842105261
 40
0.8421052631578945
 40
0.8421052631578945
 40
0.8421052631578945
 40
0.8421052631578945
 40
0.8947368421052628
 40
0.8947368421052628
 40
0.8947368421052628
 40
0.8947368421052628
 40
0.9473684210526312
 40
0.9473684210526312
 40
0.9473684210526312
 40
0.9473684210526312
 40
1.0
 40
1.0
 40
1.0
 40
1.0
 10
9.728060000000001
 20
-11.61814
 30
0.0
 10
9.728060000000001
 20
-11.61814
 30
0.0
 10
9.5512900000000016
 20
-11.61814
 30
0.0
 10
9.5512900000000016
 20
-11.61814
 30
0.0
 10
9.5512900000000016
 20
-11.61814
 30
0.0
 10
9.5512900000000016
 20
-11.61814
 30
0.0
 10
9.5512900000000016
 20
-11.53978
 30
0.0
 10
9.5512900000000016
 20
-11.53978
 30
0.0
 10
9.5512900000000016
 20
-11.53978
 30
0.0
 10
9.5512900000000016
 20
-11.52402
 30
0.0
 10
9.5529000000000011
 20
-11.512040000000001
 30
0.0
 10
9.5560700000000001
 20
-11.503850000000002
 30
0.0
 10
9.5560700000000001
 20
-11.503850000000002
 30
0.0
 10
9.5592400000000008
 20
-11.495660000000001
 30
0.0
 10
9.5648300000000006
 20
-11.489120000000002
 30
0.0
 10
9.5728600000000004
 20
-11.48418
 30
0.0
 10
9.5728600000000004
 20
-11.48418
 30
0.0
 10
9.5809200000000008
 20
-11.479280000000001
 30
0.0
 10
9.5898099999999999
 20
-11.476850000000001
 30
0.0
 10
9.5995300000000015
 20
-11.476850000000001
 30
0.0
 10
9.5995300000000015
 20
-11.476850000000001
 30
0.0
 10
9.6120800000000006
 20
-11.476850000000001
 30
0.0
 10
9.6226200000000013
 20
-11.48089
 30
0.0
 10
9.6312200000000008
 20
-11.489040000000001
 30
0.0
 10
9.6312200000000008
 20
-11.489040000000001
 30
0.0
 10
9.6398200000000003
 20
-11.497140000000002
 30
0.0
 10
9.645290000000001
 20
-11.5097
 30
0.0
 10
9.6476400000000009
 20
-11.52665
 30
0.0
 10
9.6476400000000009
 20
-11.52665
 30
0.0
 10
9.6506000000000007
 20
-11.520440000000001
 30
0.0
 10
9.6535299999999999
 20
-11.515750000000001
 30
0.0
 10
9.6564500000000013
 20
-11.512540000000001
 30
0.0
 10
9.6564500000000013
 20
-11.512540000000001
 30
0.0
 10
9.662700000000001
 20
-11.505700000000001
 30
0.0
 10
9.67056
 20
-11.49924
 30
0.0
 10
9.6799500000000016
 20
-11.493110000000001
 30
0.0
 10
9.6799500000000016
 20
-11.493110000000001
 30
0.0
 10
9.6799500000000016
 20
-11.493110000000001
 30
0.0
 10
9.728060000000001
 20
-11.462370000000002
 30
0.0
 10
9.728060000000001
 20
-11.462370000000002
 30
0.0
 10
9.728060000000001
 20
-11.462370000000002
 30
0.0
 10
9.728060000000001
 20
-11.462370000000002
 30
0.0
 10
9.728060000000001
 20
-11.491790000000002
 30
0.0
 10
9.728060000000001
 20
-11.491790000000002
 30
0.0
 10
9.728060000000001
 20
-11.491790000000002
 30
0.0
 10
9.728060000000001
 20
-11.491790000000002
 30
0.0
 10
9.6912700000000012
 20
-11.515170000000001
 30
0.0
 10
9.6912700000000012
 20
-11.515170000000001
 30
0.0
 10
9.6912700000000012
 20
-11.515170000000001
 30
0.0
 10
9.6806900000000002
 20
-11.522
 30
0.0
 10
9.6725400000000015
 20
-11.527640000000002
 30
0.0
 10
9.6669400000000003
 20
-11.53209
 30
0.0
 10
9.6669400000000003
 20
-11.53209
 30
0.0
 10
9.6613000000000007
 20
-11.536490000000001
 30
0.0
 10
9.657350000000001
 20
-11.54044
 30
0.0
 10
9.6551300000000015
 20
-11.543940000000001
 30
0.0
 10
9.6551300000000015
 20
-11.543940000000001
 30
0.0
 10
9.6528700000000001
 20
-11.547440000000002
 30
0.0
 10
9.6513000000000009
 20
-11.550980000000001
 30
0.0
 10
9.6504000000000012
 20
-11.554600000000001
 30
0.0
 10
9.6504000000000012
 20
-11.554600000000001
 30
0.0
 10
9.6498600000000003
 20
-11.557270000000001
 30
0.0
 10
9.6495700000000006
 20
-11.561590000000001
 30
0.0
 10
9.6495700000000006
 20
-11.567640000000001
 30
0.0
 10
9.6495700000000006
 20
-11.567640000000001
 30
0.0
 10
9.6495700000000006
 20
-11.567640000000001
 30
0.0
 10
9.6495700000000006
 20
-11.59477
 30
0.0
 10
9.6495700000000006
 20
-11.59477
 30
0.0
 10
9.6495700000000006
 20
-11.59477
 30
0.0
 10
9.6495700000000006
 20
-11.59477
 30
0.0
 10
9.728060000000001
 20
-11.59477
 30
0.0
 10
9.728060000000001
 20
-11.59477
 30
0.0
 10
9.728060000000001
 20
-11.59477
 30
0.0
 10
9.728060000000001
 20
-11.59477
 30
0.0
 10
9.728060000000001
 20
-11.61814
 30
0.0
 10
9.728060000000001
 20
-11.61814
 30
0.0
  0
SPLINE
  5
44
100
AcDbEntity
  8
Plan 1
100
AcDbSpline
210
0.0
220
0.0
230
1.0
 70
     1
 71
     3
 72
    36
 73
    32
 74
     0
 42
0.0000000001
 43
0.0000000001
 40
0.0
 40
0.0
 40
0.0
 40
0.0
 40
0.125
 40
0.125
 40
0.125
 40
0.125
 40
0.25
 40
0.25
 40
0.25
 40
0.25
 40
0.375
 40
0.375
 40
0.375
 40
0.375
 40
0.5
 40
0.5
 40
0.5
 40
0.5
 40
0.625
 40
0.625
 40
0.625
 40
0.625
 40
0.75
 40
0.75
 40
0.75
 40
0.75
 40
0.875
 40
0.875
 40
0.875
 40
0.875
 40
1.0
 40
1.0
 40
1.0
 40
1.0
 10
9.6293300000000013
 20
-11.59477
 30
0.0
 10
9.6293300000000013
 20
-11.59477
 30
0.0
 10
9.6293300000000013
 20
-11.54447
 30
0.0
 10
9.6293300000000013
 20
-11.54447
 30
0.0
 10
9.6293300000000013
 20
-11.54447
 30
0.0
 10
9.6293300000000013
 20
-11.533810000000001
 30
0.0
 10
9.628210000000001
 20
-11.52542
 30
0.0
 10
9.6259900000000016
 20
-11.519410000000001
 30
0.0
 10
9.6259900000000016
 20
-11.519410000000001
 30
0.0
 10
9.6237700000000004
 20
-11.51336
 30
0.0
 10
9.6202300000000012
 20
-11.508790000000001
 30
0.0
 10
9.6153700000000004
 20
-11.505660000000001
 30
0.0
 10
9.6153700000000004
 20
-11.505660000000001
 30
0.0
 10
9.6105200000000011
 20
-11.50253
 30
0.0
 10
9.6052500000000016
 20
-11.500970000000001
 30
0.0
 10
9.5995300000000015
 20
-11.500970000000001
 30
0.0
 10
9.5995300000000015
 20
-11.500970000000001
 30
0.0
 10
9.59117
 20
-11.500970000000001
 30
0.0
 10
9.5843000000000007
 20
-11.50398
 30
0.0
 10
9.5789100000000005
 20
-11.510070000000001
 30
0.0
 10
9.5789100000000005
 20
-11.510070000000001
 30
0.0
 10
9.5735200000000003
 20
-11.516120000000001
 30
0.0
 10
9.5708400000000005
 20
-11.52571
 30
0.0
 10
9.5708400000000005
 20
-11.53884
 30
0.0
 10
9.5708400000000005
 20
-11.53884
 30
0.0
 10
9.5708400000000005
 20
-11.53884
 30
0.0
 10
9.5708400000000005
 20
-11.59477
 30
0.0
 10
9.5708400000000005
 20
-11.59477
 30
0.0
 10
9.5708400000000005
 20
-11.59477
 30
0.0
 10
9.5708400000000005
 20
-11.59477
 30
0.0
 10
9.6293300000000013
 20
-11.59477
 30
0.0
 10
9.6293300000000013
 20
-11.59477
 30
0.0
  0
SPLINE
  5
45
100
AcDbEntity
  8
Plan 1
100
AcDbSpline
210
0.0
220
0.0
230
1.0
 70
     1
 71
     3
 72
    36
 73
    32
 74
     0
 42
0.0000000001
 43
0.0000000001
 40
0.0
 40
0.0
 40
0.0
 40
0.0
 40
0.125
 40
0.125
 40
0.125
 40
0.125
 40
0.25
 40
0.25
 40
0.25
 40
0.25
 40
0.375
 40
0.375
 40
0.375
 40
0.375
 40
0.5
 40
0.5
 40
0.5
 40
0.5
 40
0.625
 40
0.625
 40
0.625
 40
0.625
 40
0.75
 40
0.75
 40
0.75
 40
0.75
 40
0.875
 40
0.875
 40
0.875
 40
0.875
 40
1.0
 40
1.0
 40
1.0
 40
1.0
 10
9.728060000000001
 20
-11.459610000000001
 30
0.0
 10
9.728060000000001
 20
-11.459610000000001
 30
0.0
 10
9.5512900000000016
 20
-11.3917
 30
0.0
 10
9.5512900000000016
 20
-11.3917
 30
0.0
 10
9.5512900000000016
 20
-11.3917
 30
0.0
 10
9.5512900000000016
 20
-11.3917
 30
0.0
 10
9.5512900000000016
 20
-11.366510000000002
 30
0.0
 10
9.5512900000000016
 20
-11.366510000000002
 30
0.0
 10
9.5512900000000016
 20
-11.366510000000002
 30
0.0
 10
9.5512900000000016
 20
-11.366510000000002
 30
0.0
 10
9.728060000000001
 20
-11.294160000000002
 30
0.0
 10
9.728060000000001
 20
-11.294160000000002
 30
0.0
 10
9.728060000000001
 20
-11.294160000000002
 30
0.0
 10
9.728060000000001
 20
-11.294160000000002
 30
0.0
 10
9.728060000000001
 20
-11.320830000000001
 30
0.0
 10
9.728060000000001
 20
-11.320830000000001
 30
0.0
 10
9.728060000000001
 20
-11.320830000000001
 30
0.0
 10
9.728060000000001
 20
-11.320830000000001
 30
0.0
 10
9.6745200000000011
 20
-11.341450000000002
 30
0.0
 10
9.6745200000000011
 20
-11.341450000000002
 30
0.0
 10
9.6745200000000011
 20
-11.341450000000002
 30
0.0
 10
9.6745200000000011
 20
-11.341450000000002
 30
0.0
 10
9.6745200000000011
 20
-11.415370000000001
 30
0.0
 10
9.6745200000000011
 20
-11.415370000000001
 30
0.0
 10
9.6745200000000011
 20
-11.415370000000001
 30
0.0
 10
9.6745200000000011
 20
-11.415370000000001
 30
0.0
 10
9.728060000000001
 20
-11.434750000000001
 30
0.0
 10
9.728060000000001
 20
-11.434750000000001
 30
0.0
 10
9.728060000000001
 20
-11.434750000000001
 30
0.0
 10
9.728060000000001
 20
-11.434750000000001
 30
0.0
 10
9.728060000000001
 20
-11.459610000000001
 30
0.0
 10
9.728060000000001
 20
-11.459610000000001
 30
0.0
  0
SPLINE
  5
46
100
AcDbEntity
  8
Plan 1
100
AcDbSpline
210
0.0
220
0.0
230
1.0
 70
     1
 71
     3
 72
    24
 73
    20
 74
     0
 42
0.0000000001
 43
0.0000000001
 40
0.0
 40
0.0
 40
0.0
 40
0.0
 40
0.2
 40
0.2
 40
0.2
 40
0.2
 40
0.4
 40
0.4
 40
0.4
 40
0.4
 40
0.6000000000000001
 40
0.6000000000000001
 40
0.6000000000000001
 40
0.6000000000000001
 40
0.8
 40
0.8
 40
0.8
 40
0.8
 40
1.0
 40
1.0
 40
1.0
 40
1.0
 10
9.6554600000000015
 20
-11.408620000000001
 30
0.0
 10
9.6554600000000015
 20
-11.408620000000001
 30
0.0
 10
9.6554600000000015
 20
-11.348650000000001
 30
0.0
 10
9.6554600000000015
 20
-11.348650000000001
 30
0.0
 10
9.6554600000000015
 20
-11.348650000000001
 30
0.0
 10
9.6554600000000015
 20
-11.348650000000001
 30
0.0
 10
9.6065200000000015
 20
-11.367130000000001
 30
0.0
 10
9.6065200000000015
 20
-11.367130000000001
 30
0.0
 10
9.6065200000000015
 20
-11.367130000000001
 30
0.0
 10
9.5916700000000006
 20
-11.372730000000001
 30
0.0
 10
9.57944
 20
-11.376930000000002
 30
0.0
 10
9.5698500000000006
 20
-11.37964
 30
0.0
 10
9.5698500000000006
 20
-11.37964
 30
0.0
 10
9.5812100000000004
 20
-11.381910000000001
 30
0.0
 10
9.5924500000000013
 20
-11.38508
 30
0.0
 10
9.6036400000000004
 20
-11.389190000000001
 30
0.0
 10
9.6036400000000004
 20
-11.389190000000001
 30
0.0
 10
9.6036400000000004
 20
-11.389190000000001
 30
0.0
 10
9.6554600000000015
 20
-11.408620000000001
 30
0.0
 10
9.6554600000000015
 20
-11.408620000000001
 30
0.0
  0
SPLINE
  5
47
100
AcDbEntity
  8
Plan 1
100
AcDbSpline
210
0.0
220
0.0
230
1.0
 70
     1
 71
     3
 72
    72
 73
    68
 74
     0
 42
0.0000000001
 43
0.0000000001
 40
0.0
 40
0.0
 40
0.0
 40
0.0
 40
0.0588235294117647
 40
0.0588235294117647
 40
0.0588235294117647
 40
0.0588235294117647
 40
0.1176470588235294
 40
0.1176470588235294
 40
0.1176470588235294
 40
0.1176470588235294
 40
0.1764705882352941
 40
0.1764705882352941
 40
0.1764705882352941
 40
0.1764705882352941
 40
0.2352941176470588
 40
0.2352941176470588
 40
0.2352941176470588
 40
0.2352941176470588
 40
0.2941176470588235
 40
0.2941176470588235
 40
0.2941176470588235
 40
0.2941176470588235
 40
0.3529411764705883
 40
0.3529411764705883
 40
0.3529411764705883
 40
0.3529411764705883
 40
0.411764705882353
 40
0.411764705882353
 40
0.411764705882353
 40
0.411764705882353
 40
0.4705882352941177
 40
0.4705882352941177
 40
0.4705882352941177
 40
0.4705882352941177
 40
0.5294117647058824
 40
0.5294117647058824
 40
0.5294117647058824
 40
0.5294117647058824
 40
0.5882352941176471
 40
0.5882352941176471
 40
0.5882352941176471
 40
0.5882352941176471
 40
0.6470588235294118
 40
0.6470588235294118
 40
0.6470588235294118
 40
0.6470588235294118
 40
0.7058823529411765
 40
0.7058823529411765
 40
0.7058823529411765
 40
0.7058823529411765
 40
0.7647058823529412
 40
0.7647058823529412
 40
0.7647058823529412
 40
0.7647058823529412
 40
0.823529411764706
 40
0.823529411764706
 40
0.823529411764706
 40
0.823529411764706
 40
0.8823529411764707
 40
0.8823529411764707
 40
0.8823529411764707
 40
0.8823529411764707
 40
0.9411764705882354
 40
0.9411764705882354
 40
0.9411764705882354
 40
0.9411764705882354
 40
1.0
 40
1.0
 40
1.0
 40
1.0
 10
9.5512900000000016
 20
-11.159490000000002
 30
0.0
 10
9.5512900000000016
 20
-11.159490000000002
 30
0.0
 10
9.5512900000000016
 20
-11.136080000000002
 30
0.0
 10
9.5512900000000016
 20
-11.136080000000002
 30
0.0
 10
9.5512900000000016
 20
-11.136080000000002
 30
0.0
 10
9.5512900000000016
 20
-11.136080000000002
 30
0.0
 10
9.6534400000000016
 20
-11.136080000000002
 30
0.0
 10
9.6534400000000016
 20
-11.136080000000002
 30
0.0
 10
9.6534400000000016
 20
-11.136080000000002
 30
0.0
 10
9.6711800000000014
 20
-11.136080000000002
 30
0.0
 10
9.6853000000000016
 20
-11.13809
 30
0.0
 10
9.6957500000000003
 20
-11.142130000000002
 30
0.0
 10
9.6957500000000003
 20
-11.142130000000002
 30
0.0
 10
9.7062100000000004
 20
-11.14616
 30
0.0
 10
9.7146800000000013
 20
-11.153400000000001
 30
0.0
 10
9.7212300000000003
 20
-11.163900000000002
 30
0.0
 10
9.7212300000000003
 20
-11.163900000000002
 30
0.0
 10
9.7278100000000016
 20
-11.174390000000001
 30
0.0
 10
9.7310600000000012
 20
-11.188140000000001
 30
0.0
 10
9.7310600000000012
 20
-11.20518
 30
0.0
 10
9.7310600000000012
 20
-11.20518
 30
0.0
 10
9.7310600000000012
 20
-11.221720000000001
 30
0.0
 10
9.7282200000000003
 20
-11.23531
 30
0.0
 10
9.7225000000000001
 20
-11.245800000000001
 30
0.0
 10
9.7225000000000001
 20
-11.245800000000001
 30
0.0
 10
9.7168200000000002
 20
-11.256340000000002
 30
0.0
 10
9.7085500000000007
 20
-11.263870000000001
 30
0.0
 10
9.69773
 20
-11.268350000000002
 30
0.0
 10
9.69773
 20
-11.268350000000002
 30
0.0
 10
9.6869000000000014
 20
-11.272880000000001
 30
0.0
 10
9.6721700000000013
 20
-11.2751
 30
0.0
 10
9.6534400000000016
 20
-11.2751
 30
0.0
 10
9.6534400000000016
 20
-11.2751
 30
0.0
 10
9.6534400000000016
 20
-11.2751
 30
0.0
 10
9.5512900000000016
 20
-11.2751
 30
0.0
 10
9.5512900000000016
 20
-11.2751
 30
0.0
 10
9.5512900000000016
 20
-11.2751
 30
0.0
 10
9.5512900000000016
 20
-11.2751
 30
0.0
 10
9.5512900000000016
 20
-11.25173
 30
0.0
 10
9.5512900000000016
 20
-11.25173
 30
0.0
 10
9.5512900000000016
 20
-11.25173
 30
0.0
 10
9.5512900000000016
 20
-11.25173
 30
0.0
 10
9.6533200000000008
 20
-11.25173
 30
0.0
 10
9.6533200000000008
 20
-11.25173
 30
0.0
 10
9.6533200000000008
 20
-11.25173
 30
0.0
 10
9.6686700000000005
 20
-11.25173
 30
0.0
 10
9.6799900000000001
 20
-11.250290000000001
 30
0.0
 10
9.6872300000000013
 20
-11.247450000000001
 30
0.0
 10
9.6872300000000013
 20
-11.247450000000001
 30
0.0
 10
9.6945200000000007
 20
-11.244610000000002
 30
0.0
 10
9.7001100000000005
 20
-11.23967
 30
0.0
 10
9.7040700000000015
 20
-11.232750000000001
 30
0.0
 10
9.7040700000000015
 20
-11.232750000000001
 30
0.0
 10
9.7080200000000012
 20
-11.225800000000001
 30
0.0
 10
9.7099900000000012
 20
-11.217280000000001
 30
0.0
 10
9.7099900000000012
 20
-11.207240000000001
 30
0.0
 10
9.7099900000000012
 20
-11.207240000000001
 30
0.0
 10
9.7099900000000012
 20
-11.19003
 30
0.0
 10
9.70608
 20
-11.177770000000001
 30
0.0
 10
9.6982600000000012
 20
-11.170440000000001
 30
0.0
 10
9.6982600000000012
 20
-11.170440000000001
 30
0.0
 10
9.6904800000000009
 20
-11.163160000000001
 30
0.0
 10
9.6755000000000013
 20
-11.159490000000002
 30
0.0
 10
9.6533200000000008
 20
-11.159490000000002
 30
0.0
 10
9.6533200000000008
 20
-11.159490000000002
 30
0.0
 10
9.6533200000000008
 20
-11.159490000000002
 30
0.0
 10
9.5512900000000016
 20
-11.159490000000002
 30
0.0
 10
9.5512900000000016
 20
-11.159490000000002
 30
0.0
  0
SPLINE
  5
48
100
AcDbEntity
  8
Plan 1
100
AcDbSpline
210
0.0
220
0.0
230
1.0
 70
     1
 71
     3
 72
    52
 73
    48
 74
     0
 42
0.0000000001
 43
0.0000000001
 40
0.0
 40
0.0
 40
0.0
 40
0.0
 40
0.0833333333333333
 40
0.0833333333333333
 40
0.0833333333333333
 40
0.0833333333333333
 40
0.1666666666666667
 40
0.1666666666666667
 40
0.1666666666666667
 40
0.1666666666666667
 40
0.25
 40
0.25
 40
0.25
 40
0.25
 40
0.3333333333333333
 40
0.3333333333333333
 40
0.3333333333333333
 40
0.3333333333333333
 40
0.4166666666666666
 40
0.4166666666666666
 40
0.4166666666666666
 40
0.4166666666666666
 40
0.4999999999999999
 40
0.4999999999999999
 40
0.4999999999999999
 40
0.4999999999999999
 40
0.5833333333333333
 40
0.5833333333333333
 40
0.5833333333333333
 40
0.5833333333333333
 40
0.6666666666666666
 40
0.6666666666666666
 40
0.6666666666666666
 40
0.6666666666666666
 40
0.75
 40
0.75
 40
0.75
 40
0.75
 40
0.8333333333333334
 40
0.8333333333333334
 40
0.8333333333333334
 40
0.8333333333333334
 40
0.9166666666666667
 40
0.9166666666666667
 40
0.9166666666666667
 40
0.9166666666666667
 40
1.0
 40
1.0
 40
1.0
 40
1.0
 10
9.728060000000001
 20
-11.097140000000001
 30
0.0
 10
9.728060000000001
 20
-11.097140000000001
 30
0.0
 10
9.5512900000000016
 20
-11.097140000000001
 30
0.0
 10
9.5512900000000016
 20
-11.097140000000001
 30
0.0
 10
9.5512900000000016
 20
-11.097140000000001
 30
0.0
 10
9.5512900000000016
 20
-11.097140000000001
 30
0.0
 10
9.5512900000000016
 20
-11.03627
 30
0.0
 10
9.5512900000000016
 20
-11.03627
 30
0.0
 10
9.5512900000000016
 20
-11.03627
 30
0.0
 10
9.5512900000000016
 20
-11.022530000000001
 30
0.0
 10
9.5521600000000007
 20
-11.012030000000001
 30
0.0
 10
9.553840000000001
 20
-11.004790000000002
 30
0.0
 10
9.553840000000001
 20
-11.004790000000002
 30
0.0
 10
9.5561500000000006
 20
-10.994660000000001
 30
0.0
 10
9.5603899999999999
 20
-10.986020000000002
 30
0.0
 10
9.5664800000000003
 20
-10.978860000000001
 30
0.0
 10
9.5664800000000003
 20
-10.978860000000001
 30
0.0
 10
9.5743800000000014
 20
-10.969560000000001
 30
0.0
 10
9.5844200000000015
 20
-10.962560000000002
 30
0.0
 10
9.5966900000000006
 20
-10.95795
 30
0.0
 10
9.5966900000000006
 20
-10.95795
 30
0.0
 10
9.6089500000000001
 20
-10.9533
 30
0.0
 10
9.6229500000000012
 20
-10.951000000000001
 30
0.0
 10
9.6387100000000014
 20
-10.951000000000001
 30
0.0
 10
9.6387100000000014
 20
-10.951000000000001
 30
0.0
 10
9.6521300000000014
 20
-10.951000000000001
 30
0.0
 10
9.6640200000000007
 20
-10.95256
 30
0.0
 10
9.6743900000000007
 20
-10.955730000000001
 30
0.0
 10
9.6743900000000007
 20
-10.955730000000001
 30
0.0
 10
9.6847600000000007
 20
-10.958860000000001
 30
0.0
 10
9.6933600000000002
 20
-10.962850000000001
 30
0.0
 10
9.7001600000000003
 20
-10.967790000000001
 30
0.0
 10
9.7001600000000003
 20
-10.967790000000001
 30
0.0
 10
9.7069500000000009
 20
-10.97269
 30
0.0
 10
9.7123000000000008
 20
-10.97804
 30
0.0
 10
9.71617
 20
-10.983880000000001
 30
0.0
 10
9.71617
 20
-10.983880000000001
 30
0.0
 10
9.7200800000000012
 20
-10.989680000000002
 30
0.0
 10
9.723040000000001
 20
-10.996720000000002
 30
0.0
 10
9.7250600000000009
 20
-11.004950000000001
 30
0.0
 10
9.7250600000000009
 20
-11.004950000000001
 30
0.0
 10
9.7270700000000012
 20
-11.01323
 30
0.0
 10
9.728060000000001
 20
-11.022690000000001
 30
0.0
 10
9.728060000000001
 20
-11.03335
 30
0.0
 10
9.728060000000001
 20
-11.03335
 30
0.0
 10
9.728060000000001
 20
-11.03335
 30
0.0
 10
9.728060000000001
 20
-11.097140000000001
 30
0.0
 10
9.728060000000001
 20
-11.097140000000001
 30
0.0
  0
SPLINE
  5
49
100
AcDbEntity
  8
Plan 1
100
AcDbSpline
210
0.0
220
0.0
230
1.0
 70
     1
 71
     3
 72
    44
 73
    40
 74
     0
 42
0.0000000001
 43
0.0000000001
 40
0.0
 40
0.0
 40
0.0
 40
0.0
 40
0.1
 40
0.1
 40
0.1
 40
0.1
 40
0.2
 40
0.2
 40
0.2
 40
0.2
 40
0.3
 40
0.3
 40
0.3
 40
0.3
 40
0.4
 40
0.4
 40
0.4
 40
0.4
 40
0.5
 40
0.5
 40
0.5
 40
0.5
 40
0.6
 40
0.6
 40
0.6
 40
0.6
 40
0.7
 40
0.7
 40
0.7
 40
0.7
 40
0.7999999999999999
 40
0.7999999999999999
 40
0.7999999999999999
 40
0.7999999999999999
 40
0.8999999999999999
 40
0.8999999999999999
 40
0.8999999999999999
 40
0.8999999999999999
 40
1.0
 40
1.0
 40
1.0
 40
1.0
 10
9.7071900000000007
 20
-11.073770000000001
 30
0.0
 10
9.7071900000000007
 20
-11.073770000000001
 30
0.0
 10
9.7071900000000007
 20
-11.03603
 30
0.0
 10
9.7071900000000007
 20
-11.03603
 30
0.0
 10
9.7071900000000007
 20
-11.03603
 30
0.0
 10
9.7071900000000007
 20
-11.024380000000001
 30
0.0
 10
9.7061200000000003
 20
-11.0152
 30
0.0
 10
9.7039400000000011
 20
-11.00858
 30
0.0
 10
9.7039400000000011
 20
-11.00858
 30
0.0
 10
9.7017600000000002
 20
-11.001950000000001
 30
0.0
 10
9.6987200000000016
 20
-10.996680000000001
 30
0.0
 10
9.6947600000000005
 20
-10.992730000000002
 30
0.0
 10
9.6947600000000005
 20
-10.992730000000002
 30
0.0
 10
9.6892500000000013
 20
-10.987170000000001
 30
0.0
 10
9.6817600000000006
 20
-10.982850000000001
 30
0.0
 10
9.6724200000000007
 20
-10.97977
 30
0.0
 10
9.6724200000000007
 20
-10.97977
 30
0.0
 10
9.6630300000000009
 20
-10.976680000000002
 30
0.0
 10
9.6517100000000013
 20
-10.975110000000001
 30
0.0
 10
9.6383400000000012
 20
-10.975110000000001
 30
0.0
 10
9.6383400000000012
 20
-10.975110000000001
 30
0.0
 10
9.619860000000001
 20
-10.975110000000001
 30
0.0
 10
9.6056600000000003
 20
-10.978160000000001
 30
0.0
 10
9.595740000000001
 20
-10.984210000000001
 30
0.0
 10
9.595740000000001
 20
-10.984210000000001
 30
0.0
 10
9.5857800000000015
 20
-10.990300000000001
 30
0.0
 10
9.5791599999999999
 20
-10.997670000000001
 30
0.0
 10
9.57578
 20
-11.006350000000001
 30
0.0
 10
9.57578
 20
-11.006350000000001
 30
0.0
 10
9.5733500000000014
 20
-11.01261
 30
0.0
 10
9.5721600000000002
 20
-11.022730000000001
 30
0.0
 10
9.5721600000000002
 20
-11.036600000000002
 30
0.0
 10
9.5721600000000002
 20
-11.036600000000002
 30
0.0
 10
9.5721600000000002
 20
-11.036600000000002
 30
0.0
 10
9.5721600000000002
 20
-11.073770000000001
 30
0.0
 10
9.5721600000000002
 20
-11.073770000000001
 30
0.0
 10
9.5721600000000002
 20
-11.073770000000001
 30
0.0
 10
9.5721600000000002
 20
-11.073770000000001
 30
0.0
 10
9.7071900000000007
 20
-11.073770000000001
 30
0.0
 10
9.7071900000000007
 20
-11.073770000000001
 30
0.0
  0
SPLINE
  5
4A
100
AcDbEntity
  8
Plan 1
100
AcDbSpline
210
0.0
220
0.0
230
1.0
 70
     1
 71
     3
 72
    20
 73
    16
 74
     0
 42
0.0000000001
 43
0.0000000001
 40
0.0
 40
0.0
 40
0.0
 40
0.0
 40
0.25
 40
0.25
 40
0.25
 40
0.25
 40
0.5
 40
0.5
 40
0.5
 40
0.5
 40
0.75
 40
0.75
 40
0.75
 40
0.75
 40
1.0
 40
1.0
 40
1.0
 40
1.0
 10
9.728060000000001
 20
-10.91544
 30
0.0
 10
9.728060000000001
 20
-10.91544
 30
0.0
 10
9.7033200000000015
 20
-10.91544
 30
0.0
 10
9.7033200000000015
 20
-10.91544
 30
0.0
 10
9.7033200000000015
 20
-10.91544
 30
0.0
 10
9.7033200000000015
 20
-10.91544
 30
0.0
 10
9.7033200000000015
 20
-10.890700000000001
 30
0.0
 10
9.7033200000000015
 20
-10.890700000000001
 30
0.0
 10
9.7033200000000015
 20
-10.890700000000001
 30
0.0
 10
9.7033200000000015
 20
-10.890700000000001
 30
0.0
 10
9.728060000000001
 20
-10.890700000000001
 30
0.0
 10
9.728060000000001
 20
-10.890700000000001
 30
0.0
 10
9.728060000000001
 20
-10.890700000000001
 30
0.0
 10
9.728060000000001
 20
-10.890700000000001
 30
0.0
 10
9.728060000000001
 20
-10.91544
 30
0.0
 10
9.728060000000001
 20
-10.91544
 30
0.0
  0
SPLINE
  5
4B
100
AcDbEntity
  8
Plan 1
100
AcDbSpline
210
0.0
220
0.0
230
1.0
 70
     1
 71
     3
 72
    52
 73
    48
 74
     0
 42
0.0000000001
 43
0.0000000001
 40
0.0
 40
0.0
 40
0.0
 40
0.0
 40
0.0833333333333333
 40
0.0833333333333333
 40
0.0833333333333333
 40
0.0833333333333333
 40
0.1666666666666667
 40
0.1666666666666667
 40
0.1666666666666667
 40
0.1666666666666667
 40
0.25
 40
0.25
 40
0.25
 40
0.25
 40
0.3333333333333333
 40
0.3333333333333333
 40
0.3333333333333333
 40
0.3333333333333333
 40
0.4166666666666666
 40
0.4166666666666666
 40
0.4166666666666666
 40
0.4166666666666666
 40
0.4999999999999999
 40
0.4999999999999999
 40
0.4999999999999999
 40
0.4999999999999999
 40
0.5833333333333333
 40
0.5833333333333333
 40
0.5833333333333333
 40
0.5833333333333333
 40
0.6666666666666666
 40
0.6666666666666666
 40
0.6666666666666666
 40
0.6666666666666666
 40
0.75
 40
0.75
 40
0.75
 40
0.75
 40
0.8333333333333334
 40
0.8333333333333334
 40
0.8333333333333334
 40
0.8333333333333334
 40
0.9166666666666667
 40
0.9166666666666667
 40
0.9166666666666667
 40
0.9166666666666667
 40
1.0
 40
1.0
 40
1.0
 40
1.0
 10
9.6408900000000006
 20
-10.790400000000002
 30
0.0
 10
9.61998
 20
-10.790400000000002
 30
0.0
 10
9.6031500000000012
 20
-10.788260000000001
 30
0.0
 10
9.5904300000000013
 20
-10.783940000000001
 30
0.0
 10
9.5904300000000013
 20
-10.783940000000001
 30
0.0
 10
9.5776700000000012
 20
-10.779660000000002
 30
0.0
 10
9.5678400000000003
 20
-10.773240000000001
 30
0.0
 10
9.5609200000000012
 20
-10.764760000000001
 30
0.0
 10
9.5609200000000012
 20
-10.764760000000001
 30
0.0
 10
9.5540100000000017
 20
-10.75628
 30
0.0
 10
9.5505900000000015
 20
-10.745620000000001
 30
0.0
 10
9.5505900000000015
 20
-10.732780000000002
 30
0.0
 10
9.5505900000000015
 20
-10.732780000000002
 30
0.0
 10
9.5505900000000015
 20
-10.723280000000001
 30
0.0
 10
9.5524900000000006
 20
-10.714960000000001
 30
0.0
 10
9.5563100000000016
 20
-10.707800000000001
 30
0.0
 10
9.5563100000000016
 20
-10.707800000000001
 30
0.0
 10
9.5601000000000003
 20
-10.700640000000002
 30
0.0
 10
9.5656100000000013
 20
-10.694750000000001
 30
0.0
 10
9.5728200000000001
 20
-10.690060000000001
 30
0.0
 10
9.5728200000000001
 20
-10.690060000000001
 30
0.0
 10
9.5800200000000011
 20
-10.685410000000001
 30
0.0
 10
9.5887900000000013
 20
-10.681750000000001
 30
0.0
 10
9.599120000000001
 20
-10.679110000000001
 30
0.0
 10
9.599120000000001
 20
-10.679110000000001
 30
0.0
 10
9.6094500000000007
 20
-10.676440000000001
 30
0.0
 10
9.6233599999999999
 20
-10.675120000000001
 30
0.0
 10
9.6408900000000006
 20
-10.675120000000001
 30
0.0
 10
9.6408900000000006
 20
-10.675120000000001
 30
0.0
 10
9.6616300000000006
 20
-10.675120000000001
 30
0.0
 10
9.6783400000000004
 20
-10.67726
 30
0.0
 10
9.6911000000000005
 20
-10.681500000000002
 30
0.0
 10
9.6911000000000005
 20
-10.681500000000002
 30
0.0
 10
9.7038600000000006
 20
-10.685780000000001
 30
0.0
 10
9.7137000000000011
 20
-10.692160000000001
 30
0.0
 10
9.7206500000000009
 20
-10.700640000000002
 30
0.0
 10
9.7206500000000009
 20
-10.700640000000002
 30
0.0
 10
9.7276100000000003
 20
-10.70912
 30
0.0
 10
9.7310600000000012
 20
-10.71982
 30
0.0
 10
9.7310600000000012
 20
-10.732780000000002
 30
0.0
 10
9.7310600000000012
 20
-10.732780000000002
 30
0.0
 10
9.7310600000000012
 20
-10.749820000000001
 30
0.0
 10
9.7249700000000008
 20
-10.763200000000001
 30
0.0
 10
9.7127500000000015
 20
-10.772910000000001
 30
0.0
 10
9.7127500000000015
 20
-10.772910000000001
 30
0.0
 10
9.6980600000000017
 20
-10.784560000000001
 30
0.0
 10
9.6740600000000008
 20
-10.790400000000002
 30
0.0
 10
9.6408900000000006
 20
-10.790400000000002
 30
0.0
  0
SPLINE
  5
4C
100
AcDbEntity
  8
Plan 1
100
AcDbSpline
210
0.0
220
0.0
230
1.0
 70
     1
 71
     3
 72
    36
 73
    32
 74
     0
 42
0.0000000001
 43
0.0000000001
 40
0.0
 40
0.0
 40
0.0
 40
0.0
 40
0.125
 40
0.125
 40
0.125
 40
0.125
 40
0.25
 40
0.25
 40
0.25
 40
0.25
 40
0.375
 40
0.375
 40
0.375
 40
0.375
 40
0.5
 40
0.5
 40
0.5
 40
0.5
 40
0.625
 40
0.625
 40
0.625
 40
0.625
 40
0.75
 40
0.75
 40
0.75
 40
0.75
 40
0.875
 40
0.875
 40
0.875
 40
0.875
 40
1.0
 40
1.0
 40
1.0
 40
1.0
 10
9.6408900000000006
 20
-10.7681
 30
0.0
 10
9.6699100000000016
 20
-10.7681
 30
0.0
 10
9.689210000000001
 20
-10.76468
 30
0.0
 10
9.6988400000000006
 20
-10.757890000000002
 30
0.0
 10
9.6988400000000006
 20
-10.757890000000002
 30
0.0
 10
9.7084300000000017
 20
-10.751100000000001
 30
0.0
 10
9.7132400000000008
 20
-10.742740000000001
 30
0.0
 10
9.7132400000000008
 20
-10.732780000000002
 30
0.0
 10
9.7132400000000008
 20
-10.732780000000002
 30
0.0
 10
9.7132400000000008
 20
-10.72278
 30
0.0
 10
9.7083900000000014
 20
-10.71443
 30
0.0
 10
9.69876
 20
-10.707640000000001
 30
0.0
 10
9.69876
 20
-10.707640000000001
 30
0.0
 10
9.6891300000000005
 20
-10.700850000000001
 30
0.0
 10
9.6698200000000014
 20
-10.697430000000001
 30
0.0
 10
9.6408900000000006
 20
-10.697430000000001
 30
0.0
 10
9.6408900000000006
 20
-10.697430000000001
 30
0.0
 10
9.6117900000000009
 20
-10.697430000000001
 30
0.0
 10
9.5924500000000013
 20
-10.700850000000001
 30
0.0
 10
9.5829000000000004
 20
-10.707640000000001
 30
0.0
 10
9.5829000000000004
 20
-10.707640000000001
 30
0.0
 10
9.5733100000000011
 20
-10.71443
 30
0.0
 10
9.5685400000000005
 20
-10.722860000000001
 30
0.0
 10
9.5685400000000005
 20
-10.732990000000001
 30
0.0
 10
9.5685400000000005
 20
-10.732990000000001
 30
0.0
 10
9.5685400000000005
 20
-10.742990000000001
 30
0.0
 10
9.5727800000000016
 20
-10.75093
 30
0.0
 10
9.5812100000000004
 20
-10.756900000000002
 30
0.0
 10
9.5812100000000004
 20
-10.756900000000002
 30
0.0
 10
9.5919500000000006
 20
-10.76435
 30
0.0
 10
9.6118700000000015
 20
-10.7681
 30
0.0
 10
9.6408900000000006
 20
-10.7681
 30
0.0
  0
SPLINE
  5
4D
100
AcDbEntity
  8
Plan 1
100
AcDbSpline
210
0.0
220
0.0
230
1.0
 70
     1
 71
     3
 72
    92
 73
    88
 74
     0
 42
0.0000000001
 43
0.0000000001
 40
0.0
 40
0.0
 40
0.0
 40
0.0
 40
0.0454545454545455
 40
0.0454545454545455
 40
0.0454545454545455
 40
0.0454545454545455
 40
0.0909090909090909
 40
0.0909090909090909
 40
0.0909090909090909
 40
0.0909090909090909
 40
0.1363636363636364
 40
0.1363636363636364
 40
0.1363636363636364
 40
0.1363636363636364
 40
0.1818181818181818
 40
0.1818181818181818
 40
0.1818181818181818
 40
0.1818181818181818
 40
0.2272727272727273
 40
0.2272727272727273
 40
0.2272727272727273
 40
0.2272727272727273
 40
0.2727272727272728
 40
0.2727272727272728
 40
0.2727272727272728
 40
0.2727272727272728
 40
0.3181818181818182
 40
0.3181818181818182
 40
0.3181818181818182
 40
0.3181818181818182
 40
0.3636363636363637
 40
0.3636363636363637
 40
0.3636363636363637
 40
0.3636363636363637
 40
0.4090909090909092
 40
0.4090909090909092
 40
0.4090909090909092
 40
0.4090909090909092
 40
0.4545454545454546
 40
0.4545454545454546
 40
0.4545454545454546
 40
0.4545454545454546
 40
0.5000000000000001
 40
0.5000000000000001
 40
0.5000000000000001
 40
0.5000000000000001
 40
0.5454545454545455
 40
0.5454545454545455
 40
0.5454545454545455
 40
0.5454545454545455
 40
0.5909090909090909
 40
0.5909090909090909
 40
0.5909090909090909
 40
0.5909090909090909
 40
0.6363636363636364
 40
0.6363636363636364
 40
0.6363636363636364
 40
0.6363636363636364
 40
0.6818181818181818
 40
0.6818181818181818
 40
0.6818181818181818
 40
0.6818181818181818
 40
0.7272727272727272
 40
0.7272727272727272
 40
0.7272727272727272
 40
0.7272727272727272
 40
0.7727272727272726
 40
0.7727272727272726
 40
0.7727272727272726
 40
0.7727272727272726
 40
0.818181818181818
 40
0.818181818181818
 40
0.818181818181818
 40
0.818181818181818
 40
0.8636363636363634
 40
0.8636363636363634
 40
0.8636363636363634
 40
0.8636363636363634
 40
0.9090909090909088
 40
0.9090909090909088
 40
0.9090909090909088
 40
0.9090909090909088
 40
0.9545454545454543
 40
0.9545454545454543
 40
0.9545454545454543
 40
0.9545454545454543
 40
1.0
 40
1.0
 40
1.0
 40
1.0
 10
9.7071900000000007
 20
-10.53898
 30
0.0
 10
9.7071900000000007
 20
-10.53898
 30
0.0
 10
9.728060000000001
 20
-10.53898
 30
0.0
 10
9.728060000000001
 20
-10.53898
 30
0.0
 10
9.728060000000001
 20
-10.53898
 30
0.0
 10
9.728060000000001
 20
-10.53898
 30
0.0
 10
9.728060000000001
 20
-10.65582
 30
0.0
 10
9.728060000000001
 20
-10.65582
 30
0.0
 10
9.728060000000001
 20
-10.65582
 30
0.0
 10
9.7228300000000001
 20
-10.655980000000001
 30
0.0
 10
9.7178100000000001
 20
-10.65516
 30
0.0
 10
9.713000000000001
 20
-10.653310000000001
 30
0.0
 10
9.713000000000001
 20
-10.653310000000001
 30
0.0
 10
9.7050100000000015
 20
-10.650350000000001
 30
0.0
 10
9.6971900000000009
 20
-10.645570000000001
 30
0.0
 10
9.6895000000000007
 20
-10.63903
 30
0.0
 10
9.6895000000000007
 20
-10.63903
 30
0.0
 10
9.6817600000000006
 20
-10.632440000000001
 30
0.0
 10
9.6728300000000011
 20
-10.62298
 30
0.0
 10
9.662700000000001
 20
-10.61063
 30
0.0
 10
9.662700000000001
 20
-10.61063
 30
0.0
 10
9.6469400000000007
 20
-10.591410000000002
 30
0.0
 10
9.6344700000000003
 20
-10.5784
 30
0.0
 10
9.6252500000000012
 20
-10.57165
 30
0.0
 10
9.6252500000000012
 20
-10.57165
 30
0.0
 10
9.6160700000000006
 20
-10.564900000000002
 30
0.0
 10
9.6073500000000003
 20
-10.561530000000001
 30
0.0
 10
9.5991600000000012
 20
-10.561530000000001
 30
0.0
 10
9.5991600000000012
 20
-10.561530000000001
 30
0.0
 10
9.59056
 20
-10.561530000000001
 30
0.0
 10
9.5833100000000009
 20
-10.564620000000001
 30
0.0
 10
9.5773900000000012
 20
-10.57075
 30
0.0
 10
9.5773900000000012
 20
-10.57075
 30
0.0
 10
9.5715000000000003
 20
-10.576920000000001
 30
0.0
 10
9.5685400000000005
 20
-10.584950000000001
 30
0.0
 10
9.5685400000000005
 20
-10.594830000000002
 30
0.0
 10
9.5685400000000005
 20
-10.594830000000002
 30
0.0
 10
9.5685400000000005
 20
-10.60528
 30
0.0
 10
9.5716600000000014
 20
-10.613630000000001
 30
0.0
 10
9.5779600000000009
 20
-10.619890000000002
 30
0.0
 10
9.5779600000000009
 20
-10.619890000000002
 30
0.0
 10
9.5842200000000002
 20
-10.626190000000001
 30
0.0
 10
9.5929000000000002
 20
-10.62936
 30
0.0
 10
9.6039700000000003
 20
-10.629440000000001
 30
0.0
 10
9.6039700000000003
 20
-10.629440000000001
 30
0.0
 10
9.6039700000000003
 20
-10.629440000000001
 30
0.0
 10
9.6017100000000006
 20
-10.65174
 30
0.0
 10
9.6017100000000006
 20
-10.65174
 30
0.0
 10
9.6017100000000006
 20
-10.65174
 30
0.0
 10
9.5850400000000011
 20
-10.650220000000001
 30
0.0
 10
9.5723600000000015
 20
-10.64446
 30
0.0
 10
9.5636400000000013
 20
-10.634500000000001
 30
0.0
 10
9.5636400000000013
 20
-10.634500000000001
 30
0.0
 10
9.5549100000000013
 20
-10.624540000000001
 30
0.0
 10
9.5505900000000015
 20
-10.611120000000001
 30
0.0
 10
9.5505900000000015
 20
-10.594330000000001
 30
0.0
 10
9.5505900000000015
 20
-10.594330000000001
 30
0.0
 10
9.5505900000000015
 20
-10.57737
 30
0.0
 10
9.5552800000000016
 20
-10.563960000000002
 30
0.0
 10
9.5646700000000013
 20
-10.554080000000001
 30
0.0
 10
9.5646700000000013
 20
-10.554080000000001
 30
0.0
 10
9.57409
 20
-10.544160000000002
 30
0.0
 10
9.5857400000000013
 20
-10.53922
 30
0.0
 10
9.5996500000000005
 20
-10.53922
 30
0.0
 10
9.5996500000000005
 20
-10.53922
 30
0.0
 10
9.6067300000000007
 20
-10.53922
 30
0.0
 10
9.6136900000000001
 20
-10.540660000000001
 30
0.0
 10
9.6205200000000008
 20
-10.54359
 30
0.0
 10
9.6205200000000008
 20
-10.54359
 30
0.0
 10
9.6273500000000016
 20
-10.546470000000001
 30
0.0
 10
9.6345500000000008
 20
-10.55128
 30
0.0
 10
9.64208
 20
-10.55799
 30
0.0
 10
9.64208
 20
-10.55799
 30
0.0
 10
9.6496600000000008
 20
-10.5647
 30
0.0
 10
9.6600300000000008
 20
-10.575850000000001
 30
0.0
 10
9.6732000000000014
 20
-10.59145
 30
0.0
 10
9.6732000000000014
 20
-10.59145
 30
0.0
 10
9.6841500000000007
 20
-10.604460000000001
 30
0.0
 10
9.6915500000000012
 20
-10.612810000000001
 30
0.0
 10
9.6954600000000006
 20
-10.616510000000002
 30
0.0
 10
9.6954600000000006
 20
-10.616510000000002
 30
0.0
 10
9.6993300000000016
 20
-10.620220000000002
 30
0.0
 10
9.703240000000001
 20
-10.62326
 30
0.0
 10
9.7071900000000007
 20
-10.625690000000001
 30
0.0
 10
9.7071900000000007
 20
-10.625690000000001
 30
0.0
 10
9.7071900000000007
 20
-10.625690000000001
 30
0.0
 10
9.7071900000000007
 20
-10.53898
 30
0.0
 10
9.7071900000000007
 20
-10.53898
 30
0.0
  0
SPLINE
  5
4E
100
AcDbEntity
  8
Plan 1
100
AcDbSpline
210
0.0
220
0.0
230
1.0
 70
     1
 71
     3
 72
    20
 73
    16
 74
     0
 42
0.0000000001
 43
0.0000000001
 40
0.0
 40
0.0
 40
0.0
 40
0.0
 40
0.25
 40
0.25
 40
0.25
 40
0.25
 40
0.5
 40
0.5
 40
0.5
 40
0.5
 40
0.75
 40
0.75
 40
0.75
 40
0.75
 40
1.0
 40
1.0
 40
1.0
 40
1.0
 10
9.728060000000001
 20
-10.503540000000001
 30
0.0
 10
9.728060000000001
 20
-10.503540000000001
 30
0.0
 10
9.7033200000000015
 20
-10.503540000000001
 30
0.0
 10
9.7033200000000015
 20
-10.503540000000001
 30
0.0
 10
9.7033200000000015
 20
-10.503540000000001
 30
0.0
 10
9.7033200000000015
 20
-10.503540000000001
 30
0.0
 10
9.7033200000000015
 20
-10.478800000000001
 30
0.0
 10
9.7033200000000015
 20
-10.478800000000001
 30
0.0
 10
9.7033200000000015
 20
-10.478800000000001
 30
0.0
 10
9.7033200000000015
 20
-10.478800000000001
 30
0.0
 10
9.728060000000001
 20
-10.478800000000001
 30
0.0
 10
9.728060000000001
 20
-10.478800000000001
 30
0.0
 10
9.728060000000001
 20
-10.478800000000001
 30
0.0
 10
9.728060000000001
 20
-10.478800000000001
 30
0.0
 10
9.728060000000001
 20
-10.503540000000001
 30
0.0
 10
9.728060000000001
 20
-10.503540000000001
 30
0.0
  0
SPLINE
  5
4F
100
AcDbEntity
  8
Plan 1
100
AcDbSpline
210
0.0
220
0.0
230
1.0
 70
     1
 71
     3
 72
    92
 73
    88
 74
     0
 42
0.0000000001
 43
0.0000000001
 40
0.0
 40
0.0
 40
0.0
 40
0.0
 40
0.0454545454545455
 40
0.0454545454545455
 40
0.0454545454545455
 40
0.0454545454545455
 40
0.0909090909090909
 40
0.0909090909090909
 40
0.0909090909090909
 40
0.0909090909090909
 40
0.1363636363636364
 40
0.1363636363636364
 40
0.1363636363636364
 40
0.1363636363636364
 40
0.1818181818181818
 40
0.1818181818181818
 40
0.1818181818181818
 40
0.1818181818181818
 40
0.2272727272727273
 40
0.2272727272727273
 40
0.2272727272727273
 40
0.2272727272727273
 40
0.2727272727272728
 40
0.2727272727272728
 40
0.2727272727272728
 40
0.2727272727272728
 40
0.3181818181818182
 40
0.3181818181818182
 40
0.3181818181818182
 40
0.3181818181818182
 40
0.3636363636363637
 40
0.3636363636363637
 40
0.3636363636363637
 40
0.3636363636363637
 40
0.4090909090909092
 40
0.4090909090909092
 40
0.4090909090909092
 40
0.4090909090909092
 40
0.4545454545454546
 40
0.4545454545454546
 40
0.4545454545454546
 40
0.4545454545454546
 40
0.5000000000000001
 40
0.5000000000000001
 40
0.5000000000000001
 40
0.5000000000000001
 40
0.5454545454545455
 40
0.5454545454545455
 40
0.5454545454545455
 40
0.5454545454545455
 40
0.5909090909090909
 40
0.5909090909090909
 40
0.5909090909090909
 40
0.5909090909090909
 40
0.6363636363636364
 40
0.6363636363636364
 40
0.6363636363636364
 40
0.6363636363636364
 40
0.6818181818181818
 40
0.6818181818181818
 40
0.6818181818181818
 40
0.6818181818181818
 40
0.7272727272727272
 40
0.7272727272727272
 40
0.7272727272727272
 40
0.7272727272727272
 40
0.7727272727272726
 40
0.7727272727272726
 40
0.7727272727272726
 40
0.7727272727272726
 40
0.818181818181818
 40
0.818181818181818
 40
0.818181818181818
 40
0.818181818181818
 40
0.8636363636363634
 40
0.8636363636363634
 40
0.8636363636363634
 40
0.8636363636363634
 40
0.9090909090909088
 40
0.9090909090909088
 40
0.9090909090909088
 40
0.9090909090909088
 40
0.9545454545454543
 40
0.9545454545454543
 40
0.9545454545454543
 40
0.9545454545454543
 40
1.0
 40
1.0
 40
1.0
 40
1.0
 10
9.7071900000000007
 20
-10.333030000000001
 30
0.0
 10
9.7071900000000007
 20
-10.333030000000001
 30
0.0
 10
9.728060000000001
 20
-10.333030000000001
 30
0.0
 10
9.728060000000001
 20
-10.333030000000001
 30
0.0
 10
9.728060000000001
 20
-10.333030000000001
 30
0.0
 10
9.728060000000001
 20
-10.333030000000001
 30
0.0
 10
9.728060000000001
 20
-10.449870000000001
 30
0.0
 10
9.728060000000001
 20
-10.449870000000001
 30
0.0
 10
9.728060000000001
 20
-10.449870000000001
 30
0.0
 10
9.7228300000000001
 20
-10.450030000000002
 30
0.0
 10
9.7178100000000001
 20
-10.449210000000001
 30
0.0
 10
9.713000000000001
 20
-10.447360000000002
 30
0.0
 10
9.713000000000001
 20
-10.447360000000002
 30
0.0
 10
9.7050100000000015
 20
-10.444400000000002
 30
0.0
 10
9.6971900000000009
 20
-10.439620000000001
 30
0.0
 10
9.6895000000000007
 20
-10.43308
 30
0.0
 10
9.6895000000000007
 20
-10.43308
 30
0.0
 10
9.6817600000000006
 20
-10.426490000000001
 30
0.0
 10
9.6728300000000011
 20
-10.41703
 30
0.0
 10
9.662700000000001
 20
-10.404680000000001
 30
0.0
 10
9.662700000000001
 20
-10.404680000000001
 30
0.0
 10
9.6469400000000007
 20
-10.38546
 30
0.0
 10
9.6344700000000003
 20
-10.372450000000001
 30
0.0
 10
9.6252500000000012
 20
-10.3657
 30
0.0
 10
9.6252500000000012
 20
-10.3657
 30
0.0
 10
9.6160700000000006
 20
-10.35895
 30
0.0
 10
9.6073500000000003
 20
-10.355580000000002
 30
0.0
 10
9.5991600000000012
 20
-10.355580000000002
 30
0.0
 10
9.5991600000000012
 20
-10.355580000000002
 30
0.0
 10
9.59056
 20
-10.355580000000002
 30
0.0
 10
9.5833100000000009
 20
-10.35867
 30
0.0
 10
9.5773900000000012
 20
-10.364800000000001
 30
0.0
 10
9.5773900000000012
 20
-10.364800000000001
 30
0.0
 10
9.5715000000000003
 20
-10.370970000000002
 30
0.0
 10
9.5685400000000005
 20
-10.379000000000001
 30
0.0
 10
9.5685400000000005
 20
-10.38888
 30
0.0
 10
9.5685400000000005
 20
-10.38888
 30
0.0
 10
9.5685400000000005
 20
-10.399330000000001
 30
0.0
 10
9.5716600000000014
 20
-10.407680000000001
 30
0.0
 10
9.5779600000000009
 20
-10.41394
 30
0.0
 10
9.5779600000000009
 20
-10.41394
 30
0.0
 10
9.5842200000000002
 20
-10.420240000000002
 30
0.0
 10
9.5929000000000002
 20
-10.423410000000001
 30
0.0
 10
9.6039700000000003
 20
-10.423490000000001
 30
0.0
 10
9.6039700000000003
 20
-10.423490000000001
 30
0.0
 10
9.6039700000000003
 20
-10.423490000000001
 30
0.0
 10
9.6017100000000006
 20
-10.445790000000001
 30
0.0
 10
9.6017100000000006
 20
-10.445790000000001
 30
0.0
 10
9.6017100000000006
 20
-10.445790000000001
 30
0.0
 10
9.5850400000000011
 20
-10.444270000000001
 30
0.0
 10
9.5723600000000015
 20
-10.438510000000001
 30
0.0
 10
9.5636400000000013
 20
-10.428550000000001
 30
0.0
 10
9.5636400000000013
 20
-10.428550000000001
 30
0.0
 10
9.5549100000000013
 20
-10.41859
 30
0.0
 10
9.5505900000000015
 20
-10.40517
 30
0.0
 10
9.5505900000000015
 20
-10.388380000000002
 30
0.0
 10
9.5505900000000015
 20
-10.388380000000002
 30
0.0
 10
9.5505900000000015
 20
-10.371420000000001
 30
0.0
 10
9.5552800000000016
 20
-10.35801
 30
0.0
 10
9.5646700000000013
 20
-10.348130000000001
 30
0.0
 10
9.5646700000000013
 20
-10.348130000000001
 30
0.0
 10
9.57409
 20
-10.33821
 30
0.0
 10
9.5857400000000013
 20
-10.333270000000001
 30
0.0
 10
9.5996500000000005
 20
-10.333270000000001
 30
0.0
 10
9.5996500000000005
 20
-10.333270000000001
 30
0.0
 10
9.6067300000000007
 20
-10.333270000000001
 30
0.0
 10
9.6136900000000001
 20
-10.334710000000001
 30
0.0
 10
9.6205200000000008
 20
-10.33764
 30
0.0
 10
9.6205200000000008
 20
-10.33764
 30
0.0
 10
9.6273500000000016
 20
-10.340520000000001
 30
0.0
 10
9.6345500000000008
 20
-10.345330000000001
 30
0.0
 10
9.64208
 20
-10.352040000000001
 30
0.0
 10
9.64208
 20
-10.352040000000001
 30
0.0
 10
9.6496600000000008
 20
-10.358750000000001
 30
0.0
 10
9.6600300000000008
 20
-10.369900000000001
 30
0.0
 10
9.6732000000000014
 20
-10.3855
 30
0.0
 10
9.6732000000000014
 20
-10.3855
 30
0.0
 10
9.6841500000000007
 20
-10.398510000000002
 30
0.0
 10
9.6915500000000012
 20
-10.40686
 30
0.0
 10
9.6954600000000006
 20
-10.41056
 30
0.0
 10
9.6954600000000006
 20
-10.41056
 30
0.0
 10
9.6993300000000016
 20
-10.41427
 30
0.0
 10
9.703240000000001
 20
-10.417310000000001
 30
0.0
 10
9.7071900000000007
 20
-10.419740000000001
 30
0.0
 10
9.7071900000000007
 20
-10.419740000000001
 30
0.0
 10
9.7071900000000007
 20
-10.419740000000001
 30
0.0
 10
9.7071900000000007
 20
-10.333030000000001
 30
0.0
 10
9.7071900000000007
 20
-10.333030000000001
 30
0.0
  0
SPLINE
  5
50
100
AcDbEntity
  8
Plan 1
100
AcDbSpline
210
0.0
220
0.0
230
1.0
 70
     1
 71
     3
 72
    52
 73
    48
 74
     0
 42
0.0000000001
 43
0.0000000001
 40
0.0
 40
0.0
 40
0.0
 40
0.0
 40
0.0833333333333333
 40
0.0833333333333333
 40
0.0833333333333333
 40
0.0833333333333333
 40
0.1666666666666667
 40
0.1666666666666667
 40
0.1666666666666667
 40
0.1666666666666667
 40
0.25
 40
0.25
 40
0.25
 40
0.25
 40
0.3333333333333333
 40
0.3333333333333333
 40
0.3333333333333333
 40
0.3333333333333333
 40
0.4166666666666666
 40
0.4166666666666666
 40
0.4166666666666666
 40
0.4166666666666666
 40
0.4999999999999999
 40
0.4999999999999999
 40
0.4999999999999999
 40
0.4999999999999999
 40
0.5833333333333333
 40
0.5833333333333333
 40
0.5833333333333333
 40
0.5833333333333333
 40
0.6666666666666666
 40
0.6666666666666666
 40
0.6666666666666666
 40
0.6666666666666666
 40
0.75
 40
0.75
 40
0.75
 40
0.75
 40
0.8333333333333334
 40
0.8333333333333334
 40
0.8333333333333334
 40
0.8333333333333334
 40
0.9166666666666667
 40
0.9166666666666667
 40
0.9166666666666667
 40
0.9166666666666667
 40
1.0
 40
1.0
 40
1.0
 40
1.0
 10
9.6408900000000006
 20
-10.30977
 30
0.0
 10
9.61998
 20
-10.30977
 30
0.0
 10
9.6031500000000012
 20
-10.307630000000001
 30
0.0
 10
9.5904300000000013
 20
-10.303310000000002
 30
0.0
 10
9.5904300000000013
 20
-10.303310000000002
 30
0.0
 10
9.5776700000000012
 20
-10.29903
 30
0.0
 10
9.5678400000000003
 20
-10.292610000000002
 30
0.0
 10
9.5609200000000012
 20
-10.284130000000001
 30
0.0
 10
9.5609200000000012
 20
-10.284130000000001
 30
0.0
 10
9.5540100000000017
 20
-10.275650000000001
 30
0.0
 10
9.5505900000000015
 20
-10.264990000000001
 30
0.0
 10
9.5505900000000015
 20
-10.25215
 30
0.0
 10
9.5505900000000015
 20
-10.25215
 30
0.0
 10
9.5505900000000015
 20
-10.242650000000001
 30
0.0
 10
9.5524900000000006
 20
-10.234330000000002
 30
0.0
 10
9.5563100000000016
 20
-10.227170000000001
 30
0.0
 10
9.5563100000000016
 20
-10.227170000000001
 30
0.0
 10
9.5601000000000003
 20
-10.22001
 30
0.0
 10
9.5656100000000013
 20
-10.214120000000001
 30
0.0
 10
9.5728200000000001
 20
-10.209430000000001
 30
0.0
 10
9.5728200000000001
 20
-10.209430000000001
 30
0.0
 10
9.5800200000000011
 20
-10.204780000000001
 30
0.0
 10
9.5887900000000013
 20
-10.201120000000001
 30
0.0
 10
9.599120000000001
 20
-10.19848
 30
0.0
 10
9.599120000000001
 20
-10.19848
 30
0.0
 10
9.6094500000000007
 20
-10.195810000000002
 30
0.0
 10
9.6233599999999999
 20
-10.19449
 30
0.0
 10
9.6408900000000006
 20
-10.19449
 30
0.0
 10
9.6408900000000006
 20
-10.19449
 30
0.0
 10
9.6616300000000006
 20
-10.19449
 30
0.0
 10
9.6783400000000004
 20
-10.196630000000001
 30
0.0
 10
9.6911000000000005
 20
-10.20087
 30
0.0
 10
9.6911000000000005
 20
-10.20087
 30
0.0
 10
9.7038600000000006
 20
-10.205150000000001
 30
0.0
 10
9.7137000000000011
 20
-10.211530000000002
 30
0.0
 10
9.7206500000000009
 20
-10.22001
 30
0.0
 10
9.7206500000000009
 20
-10.22001
 30
0.0
 10
9.7276100000000003
 20
-10.228490000000001
 30
0.0
 10
9.7310600000000012
 20
-10.239190000000001
 30
0.0
 10
9.7310600000000012
 20
-10.25215
 30
0.0
 10
9.7310600000000012
 20
-10.25215
 30
0.0
 10
9.7310600000000012
 20
-10.26919
 30
0.0
 10
9.7249700000000008
 20
-10.282570000000002
 30
0.0
 10
9.7127500000000015
 20
-10.292280000000002
 30
0.0
 10
9.7127500000000015
 20
-10.292280000000002
 30
0.0
 10
9.6980600000000017
 20
-10.303930000000001
 30
0.0
 10
9.6740600000000008
 20
-10.30977
 30
0.0
 10
9.6408900000000006
 20
-10.30977
 30
0.0
  0
SPLINE
  5
51
100
AcDbEntity
  8
Plan 1
100
AcDbSpline
210
0.0
220
0.0
230
1.0
 70
     1
 71
     3
 72
    36
 73
    32
 74
     0
 42
0.0000000001
 43
0.0000000001
 40
0.0
 40
0.0
 40
0.0
 40
0.0
 40
0.125
 40
0.125
 40
0.125
 40
0.125
 40
0.25
 40
0.25
 40
0.25
 40
0.25
 40
0.375
 40
0.375
 40
0.375
 40
0.375
 40
0.5
 40
0.5
 40
0.5
 40
0.5
 40
0.625
 40
0.625
 40
0.625
 40
0.625
 40
0.75
 40
0.75
 40
0.75
 40
0.75
 40
0.875
 40
0.875
 40
0.875
 40
0.875
 40
1.0
 40
1.0
 40
1.0
 40
1.0
 10
9.6408900000000006
 20
-10.287470000000001
 30
0.0
 10
9.6699100000000016
 20
-10.287470000000001
 30
0.0
 10
9.689210000000001
 20
-10.284050000000001
 30
0.0
 10
9.6988400000000006
 20
-10.27726
 30
0.0
 10
9.6988400000000006
 20
-10.27726
 30
0.0
 10
9.7084300000000017
 20
-10.270470000000001
 30
0.0
 10
9.7132400000000008
 20
-10.262110000000002
 30
0.0
 10
9.7132400000000008
 20
-10.25215
 30
0.0
 10
9.7132400000000008
 20
-10.25215
 30
0.0
 10
9.7132400000000008
 20
-10.242150000000001
 30
0.0
 10
9.7083900000000014
 20
-10.2338
 30
0.0
 10
9.69876
 20
-10.227010000000002
 30
0.0
 10
9.69876
 20
-10.227010000000002
 30
0.0
 10
9.6891300000000005
 20
-10.220220000000001
 30
0.0
 10
9.6698200000000014
 20
-10.216800000000001
 30
0.0
 10
9.6408900000000006
 20
-10.216800000000001
 30
0.0
 10
9.6408900000000006
 20
-10.216800000000001
 30
0.0
 10
9.6117900000000009
 20
-10.216800000000001
 30
0.0
 10
9.5924500000000013
 20
-10.220220000000001
 30
0.0
 10
9.5829000000000004
 20
-10.227010000000002
 30
0.0
 10
9.5829000000000004
 20
-10.227010000000002
 30
0.0
 10
9.5733100000000011
 20
-10.2338
 30
0.0
 10
9.5685400000000005
 20
-10.242230000000001
 30
0.0
 10
9.5685400000000005
 20
-10.252360000000001
 30
0.0
 10
9.5685400000000005
 20
-10.252360000000001
 30
0.0
 10
9.5685400000000005
 20
-10.262360000000001
 30
0.0
 10
9.5727800000000016
 20
-10.270300000000001
 30
0.0
 10
9.5812100000000004
 20
-10.27627
 30
0.0
 10
9.5812100000000004
 20
-10.27627
 30
0.0
 10
9.5919500000000006
 20
-10.283720000000001
 30
0.0
 10
9.6118700000000015
 20
-10.287470000000001
 30
0.0
 10
9.6408900000000006
 20
-10.287470000000001
 30
0.0
  0
SPLINE
  5
52
100
AcDbEntity
  8
Plan 1
100
AcDbSpline
210
0.0
220
0.0
230
1.0
 70
     1
 71
     3
 72
    52
 73
    48
 74
     0
 42
0.0000000001
 43
0.0000000001
 40
0.0
 40
0.0
 40
0.0
 40
0.0
 40
0.0833333333333333
 40
0.0833333333333333
 40
0.0833333333333333
 40
0.0833333333333333
 40
0.1666666666666667
 40
0.1666666666666667
 40
0.1666666666666667
 40
0.1666666666666667
 40
0.25
 40
0.25
 40
0.25
 40
0.25
 40
0.3333333333333333
 40
0.3333333333333333
 40
0.3333333333333333
 40
0.3333333333333333
 40
0.4166666666666666
 40
0.4166666666666666
 40
0.4166666666666666
 40
0.4166666666666666
 40
0.4999999999999999
 40
0.4999999999999999
 40
0.4999999999999999
 40
0.4999999999999999
 40
0.5833333333333333
 40
0.5833333333333333
 40
0.5833333333333333
 40
0.5833333333333333
 40
0.6666666666666666
 40
0.6666666666666666
 40
0.6666666666666666
 40
0.6666666666666666
 40
0.75
 40
0.75
 40
0.75
 40
0.75
 40
0.8333333333333334
 40
0.8333333333333334
 40
0.8333333333333334
 40
0.8333333333333334
 40
0.9166666666666667
 40
0.9166666666666667
 40
0.9166666666666667
 40
0.9166666666666667
 40
1.0
 40
1.0
 40
1.0
 40
1.0
 10
9.6408900000000006
 20
-10.17243
 30
0.0
 10
9.61998
 20
-10.17243
 30
0.0
 10
9.6031500000000012
 20
-10.170290000000001
 30
0.0
 10
9.5904300000000013
 20
-10.165970000000002
 30
0.0
 10
9.5904300000000013
 20
-10.165970000000002
 30
0.0
 10
9.5776700000000012
 20
-10.16169
 30
0.0
 10
9.5678400000000003
 20
-10.155270000000002
 30
0.0
 10
9.5609200000000012
 20
-10.146790000000001
 30
0.0
 10
9.5609200000000012
 20
-10.146790000000001
 30
0.0
 10
9.5540100000000017
 20
-10.138310000000001
 30
0.0
 10
9.5505900000000015
 20
-10.127650000000001
 30
0.0
 10
9.5505900000000015
 20
-10.11481
 30
0.0
 10
9.5505900000000015
 20
-10.11481
 30
0.0
 10
9.5505900000000015
 20
-10.105310000000001
 30
0.0
 10
9.5524900000000006
 20
-10.096990000000002
 30
0.0
 10
9.5563100000000016
 20
-10.089830000000001
 30
0.0
 10
9.5563100000000016
 20
-10.089830000000001
 30
0.0
 10
9.5601000000000003
 20
-10.08267
 30
0.0
 10
9.5656100000000013
 20
-10.076780000000001
 30
0.0
 10
9.5728200000000001
 20
-10.072090000000001
 30
0.0
 10
9.5728200000000001
 20
-10.072090000000001
 30
0.0
 10
9.5800200000000011
 20
-10.067440000000001
 30
0.0
 10
9.5887900000000013
 20
-10.063780000000001
 30
0.0
 10
9.599120000000001
 20
-10.06114
 30
0.0
 10
9.599120000000001
 20
-10.06114
 30
0.0
 10
9.6094500000000007
 20
-10.058470000000002
 30
0.0
 10
9.6233599999999999
 20
-10.05715
 30
0.0
 10
9.6408900000000006
 20
-10.05715
 30
0.0
 10
9.6408900000000006
 20
-10.05715
 30
0.0
 10
9.6616300000000006
 20
-10.05715
 30
0.0
 10
9.6783400000000004
 20
-10.059290000000001
 30
0.0
 10
9.6911000000000005
 20
-10.06353
 30
0.0
 10
9.6911000000000005
 20
-10.06353
 30
0.0
 10
9.7038600000000006
 20
-10.067810000000001
 30
0.0
 10
9.7137000000000011
 20
-10.074190000000002
 30
0.0
 10
9.7206500000000009
 20
-10.08267
 30
0.0
 10
9.7206500000000009
 20
-10.08267
 30
0.0
 10
9.7276100000000003
 20
-10.091150000000001
 30
0.0
 10
9.7310600000000012
 20
-10.101850000000001
 30
0.0
 10
9.7310600000000012
 20
-10.11481
 30
0.0
 10
9.7310600000000012
 20
-10.11481
 30
0.0
 10
9.7310600000000012
 20
-10.13185
 30
0.0
 10
9.7249700000000008
 20
-10.145230000000002
 30
0.0
 10
9.7127500000000015
 20
-10.154940000000002
 30
0.0
 10
9.7127500000000015
 20
-10.154940000000002
 30
0.0
 10
9.6980600000000017
 20
-10.166590000000001
 30
0.0
 10
9.6740600000000008
 20
-10.17243
 30
0.0
 10
9.6408900000000006
 20
-10.17243
 30
0.0
  0
SPLINE
  5
53
100
AcDbEntity
  8
Plan 1
100
AcDbSpline
210
0.0
220
0.0
230
1.0
 70
     1
 71
     3
 72
    36
 73
    32
 74
     0
 42
0.0000000001
 43
0.0000000001
 40
0.0
 40
0.0
 40
0.0
 40
0.0
 40
0.125
 40
0.125
 40
0.125
 40
0.125
 40
0.25
 40
0.25
 40
0.25
 40
0.25
 40
0.375
 40
0.375
 40
0.375
 40
0.375
 40
0.5
 40
0.5
 40
0.5
 40
0.5
 40
0.625
 40
0.625
 40
0.625
 40
0.625
 40
0.75
 40
0.75
 40
0.75
 40
0.75
 40
0.875
 40
0.875
 40
0.875
 40
0.875
 40
1.0
 40
1.0
 40
1.0
 40
1.0
 10
9.6408900000000006
 20
-10.150130000000001
 30
0.0
 10
9.6699100000000016
 20
-10.150130000000001
 30
0.0
 10
9.689210000000001
 20
-10.146710000000001
 30
0.0
 10
9.6988400000000006
 20
-10.13992
 30
0.0
 10
9.6988400000000006
 20
-10.13992
 30
0.0
 10
9.7084300000000017
 20
-10.133130000000001
 30
0.0
 10
9.7132400000000008
 20
-10.124770000000002
 30
0.0
 10
9.7132400000000008
 20
-10.11481
 30
0.0
 10
9.7132400000000008
 20
-10.11481
 30
0.0
 10
9.7132400000000008
 20
-10.104810000000001
 30
0.0
 10
9.7083900000000014
 20
-10.09646
 30
0.0
 10
9.69876
 20
-10.089670000000002
 30
0.0
 10
9.69876
 20
-10.089670000000002
 30
0.0
 10
9.6891300000000005
 20
-10.082880000000001
 30
0.0
 10
9.6698200000000014
 20
-10.079460000000001
 30
0.0
 10
9.6408900000000006
 20
-10.079460000000001
 30
0.0
 10
9.6408900000000006
 20
-10.079460000000001
 30
0.0
 10
9.6117900000000009
 20
-10.079460000000001
 30
0.0
 10
9.5924500000000013
 20
-10.082880000000001
 30
0.0
 10
9.5829000000000004
 20
-10.089670000000002
 30
0.0
 10
9.5829000000000004
 20
-10.089670000000002
 30
0.0
 10
9.5733100000000011
 20
-10.09646
 30
0.0
 10
9.5685400000000005
 20
-10.104890000000001
 30
0.0
 10
9.5685400000000005
 20
-10.115020000000001
 30
0.0
 10
9.5685400000000005
 20
-10.115020000000001
 30
0.0
 10
9.5685400000000005
 20
-10.125020000000001
 30
0.0
 10
9.5727800000000016
 20
-10.132960000000001
 30
0.0
 10
9.5812100000000004
 20
-10.13893
 30
0.0
 10
9.5812100000000004
 20
-10.13893
 30
0.0
 10
9.5919500000000006
 20
-10.146380000000001
 30
0.0
 10
9.6118700000000015
 20
-10.150130000000001
 30
0.0
 10
9.6408900000000006
 20
-10.150130000000001
 30
0.0
  0
SPLINE
  5
54
100
AcDbEntity
  8
Plan 1
100
AcDbSpline
210
0.0
220
0.0
230
1.0
 70
     1
 71
     3
 72
    68
 73
    64
 74
     0
 42
0.0000000001
 43
0.0000000001
 40
0.0
 40
0.0
 40
0.0
 40
0.0
 40
0.0625
 40
0.0625
 40
0.0625
 40
0.0625
 40
0.125
 40
0.125
 40
0.125
 40
0.125
 40
0.1875
 40
0.1875
 40
0.1875
 40
0.1875
 40
0.25
 40
0.25
 40
0.25
 40
0.25
 40
0.3125
 40
0.3125
 40
0.3125
 40
0.3125
 40
0.375
 40
0.375
 40
0.375
 40
0.375
 40
0.4375
 40
0.4375
 40
0.4375
 40
0.4375
 40
0.5
 40
0.5
 40
0.5
 40
0.5
 40
0.5625
 40
0.5625
 40
0.5625
 40
0.5625
 40
0.625
 40
0.625
 40
0.625
 40
0.625
 40
0.6875
 40
0.6875
 40
0.6875
 40
0.6875
 40
0.75
 40
0.75
 40
0.75
 40
0.75
 40
0.8125
 40
0.8125
 40
0.8125
 40
0.8125
 40
0.875
 40
0.875
 40
0.875
 40
0.875
 40
0.9375
 40
0.9375
 40
0.9375
 40
0.9375
 40
1.0
 40
1.0
 40
1.0
 40
1.0
 10
9.6322100000000006
 20
-10.001670000000001
 30
0.0
 10
9.6289100000000012
 20
-10.01069
 30
0.0
 10
9.6242200000000011
 20
-10.01735
 30
0.0
 10
9.6180900000000005
 20
-10.02172
 30
0.0
 10
9.6180900000000005
 20
-10.02172
 30
0.0
 10
9.6120000000000001
 20
-10.02604
 30
0.0
 10
9.6046700000000005
 20
-10.028220000000001
 30
0.0
 10
9.5961500000000015
 20
-10.028220000000001
 30
0.0
 10
9.5961500000000015
 20
-10.028220000000001
 30
0.0
 10
9.5832700000000006
 20
-10.028220000000001
 30
0.0
 10
9.5724900000000002
 20
-10.023610000000001
 30
0.0
 10
9.56372
 20
-10.01435
 30
0.0
 10
9.56372
 20
-10.01435
 30
0.0
 10
9.5549600000000012
 20
-10.005090000000001
 30
0.0
 10
9.5505900000000015
 20
-9.99282
 30
0.0
 10
9.5505900000000015
 20
-9.9774700000000003
 30
0.0
 10
9.5505900000000015
 20
-9.9774700000000003
 30
0.0
 10
9.5505900000000015
 20
-9.96204
 30
0.0
 10
9.55504
 20
-9.9496100000000016
 30
0.0
 10
9.5640100000000015
 20
-9.9401800000000016
 30
0.0
 10
9.5640100000000015
 20
-9.9401800000000016
 30
0.0
 10
9.5729800000000012
 20
-9.9308000000000014
 30
0.0
 10
9.5838900000000002
 20
-9.9261100000000013
 30
0.0
 10
9.5967700000000011
 20
-9.9261100000000013
 30
0.0
 10
9.5967700000000011
 20
-9.9261100000000013
 30
0.0
 10
9.6049600000000002
 20
-9.9261100000000013
 30
0.0
 10
9.6120800000000006
 20
-9.9282500000000002
 30
0.0
 10
9.618170000000001
 20
-9.9325300000000016
 30
0.0
 10
9.618170000000001
 20
-9.9325300000000016
 30
0.0
 10
9.6242200000000011
 20
-9.9368500000000015
 30
0.0
 10
9.6289100000000012
 20
-9.9433500000000006
 30
0.0
 10
9.6322100000000006
 20
-9.9521200000000007
 30
0.0
 10
9.6322100000000006
 20
-9.9521200000000007
 30
0.0
 10
9.6357500000000016
 20
-9.9413
 30
0.0
 10
9.64147
 20
-9.9330200000000008
 30
0.0
 10
9.6493300000000009
 20
-9.9273400000000009
 30
0.0
 10
9.6493300000000009
 20
-9.9273400000000009
 30
0.0
 10
9.6571899999999999
 20
-9.9217100000000009
 30
0.0
 10
9.6666100000000004
 20
-9.9188700000000001
 30
0.0
 10
9.6775200000000012
 20
-9.9188700000000001
 30
0.0
 10
9.6775200000000012
 20
-9.9188700000000001
 30
0.0
 10
9.6926700000000015
 20
-9.9188700000000001
 30
0.0
 10
9.7053400000000014
 20
-9.92422
 30
0.0
 10
9.7156300000000009
 20
-9.9348800000000015
 30
0.0
 10
9.7156300000000009
 20
-9.9348800000000015
 30
0.0
 10
9.7259200000000003
 20
-9.9455800000000014
 30
0.0
 10
9.7310600000000012
 20
-9.9596500000000017
 30
0.0
 10
9.7310600000000012
 20
-9.9771000000000001
 30
0.0
 10
9.7310600000000012
 20
-9.9771000000000001
 30
0.0
 10
9.7310600000000012
 20
-9.9945500000000003
 30
0.0
 10
9.7259200000000003
 20
-10.008590000000002
 30
0.0
 10
9.7155900000000006
 20
-10.019290000000002
 30
0.0
 10
9.7155900000000006
 20
-10.019290000000002
 30
0.0
 10
9.7052600000000009
 20
-10.029990000000002
 30
0.0
 10
9.69238
 20
-10.035340000000001
 30
0.0
 10
9.6769400000000001
 20
-10.035340000000001
 30
0.0
 10
9.6769400000000001
 20
-10.035340000000001
 30
0.0
 10
9.6654600000000013
 20
-10.035340000000001
 30
0.0
 10
9.6558299999999999
 20
-10.03242
 30
0.0
 10
9.6480500000000013
 20
-10.026570000000001
 30
0.0
 10
9.6480500000000013
 20
-10.026570000000001
 30
0.0
 10
9.6403100000000013
 20
-10.020770000000001
 30
0.0
 10
9.6350000000000016
 20
-10.012460000000001
 30
0.0
 10
9.6322100000000006
 20
-10.001670000000001
 30
0.0
  0
SPLINE
  5
55
100
AcDbEntity
  8
Plan 1
100
AcDbSpline
210
0.0
220
0.0
230
1.0
 70
     1
 71
     3
 72
    36
 73
    32
 74
     0
 42
0.0000000001
 43
0.0000000001
 40
0.0
 40
0.0
 40
0.0
 40
0.0
 40
0.125
 40
0.125
 40
0.125
 40
0.125
 40
0.25
 40
0.25
 40
0.25
 40
0.25
 40
0.375
 40
0.375
 40
0.375
 40
0.375
 40
0.5
 40
0.5
 40
0.5
 40
0.5
 40
0.625
 40
0.625
 40
0.625
 40
0.625
 40
0.75
 40
0.75
 40
0.75
 40
0.75
 40
0.875
 40
0.875
 40
0.875
 40
0.875
 40
1.0
 40
1.0
 40
1.0
 40
1.0
 10
9.5954100000000011
 20
-10.00604
 30
0.0
 10
9.6037700000000008
 20
-10.00604
 30
0.0
 10
9.6106000000000016
 20
-10.00332
 30
0.0
 10
9.6159100000000013
 20
-9.9979700000000005
 30
0.0
 10
9.6159100000000013
 20
-9.9979700000000005
 30
0.0
 10
9.621220000000001
 20
-9.9925800000000002
 30
0.0
 10
9.6238900000000012
 20
-9.9855800000000006
 30
0.0
 10
9.6238900000000012
 20
-9.9769800000000011
 30
0.0
 10
9.6238900000000012
 20
-9.9769800000000011
 30
0.0
 10
9.6238900000000012
 20
-9.9686200000000014
 30
0.0
 10
9.6212600000000013
 20
-9.9617500000000003
 30
0.0
 10
9.61599
 20
-9.9564000000000004
 30
0.0
 10
9.61599
 20
-9.9564000000000004
 30
0.0
 10
9.6107200000000006
 20
-9.9510500000000004
 30
0.0
 10
9.60426
 20
-9.9484200000000005
 30
0.0
 10
9.5966500000000003
 20
-9.9484200000000005
 30
0.0
 10
9.5966500000000003
 20
-9.9484200000000005
 30
0.0
 10
9.5886600000000008
 20
-9.9484200000000005
 30
0.0
 10
9.5819900000000011
 20
-9.9511300000000009
 30
0.0
 10
9.5765600000000006
 20
-9.9566500000000016
 30
0.0
 10
9.5765600000000006
 20
-9.9566500000000016
 30
0.0
 10
9.5711300000000001
 20
-9.9621600000000008
 30
0.0
 10
9.5684100000000001
 20
-9.9689900000000016
 30
0.0
 10
9.5684100000000001
 20
-9.9772300000000005
 30
0.0
 10
9.5684100000000001
 20
-9.9772300000000005
 30
0.0
 10
9.5684100000000001
 20
-9.9855
 30
0.0
 10
9.5710900000000017
 20
-9.9923700000000011
 30
0.0
 10
9.5763600000000011
 20
-9.9978500000000015
 30
0.0
 10
9.5763600000000011
 20
-9.9978500000000015
 30
0.0
 10
9.5816700000000008
 20
-10.00332
 30
0.0
 10
9.5880500000000008
 20
-10.00604
 30
0.0
 10
9.5954100000000011
 20
-10.00604
 30
0.0
  0
SPLINE
  5
56
100
AcDbEntity
  8
Plan 1
100
AcDbSpline
210
0.0
220
0.0
230
1.0
 70
     1
 71
     3
 72
    40
 73
    36
 74
     0
 42
0.0000000001
 43
0.0000000001
 40
0.0
 40
0.0
 40
0.0
 40
0.0
 40
0.1111111111111111
 40
0.1111111111111111
 40
0.1111111111111111
 40
0.1111111111111111
 40
0.2222222222222222
 40
0.2222222222222222
 40
0.2222222222222222
 40
0.2222222222222222
 40
0.3333333333333333
 40
0.3333333333333333
 40
0.3333333333333333
 40
0.3333333333333333
 40
0.4444444444444444
 40
0.4444444444444444
 40
0.4444444444444444
 40
0.4444444444444444
 40
0.5555555555555556
 40
0.5555555555555556
 40
0.5555555555555556
 40
0.5555555555555556
 40
0.6666666666666667
 40
0.6666666666666667
 40
0.6666666666666667
 40
0.6666666666666667
 40
0.7777777777777779
 40
0.7777777777777779
 40
0.7777777777777779
 40
0.7777777777777779
 40
0.8888888888888891
 40
0.8888888888888891
 40
0.8888888888888891
 40
0.8888888888888891
 40
1.0
 40
1.0
 40
1.0
 40
1.0
 10
9.6770700000000005
 20
-10.013030000000001
 30
0.0
 10
9.6832400000000014
 20
-10.013030000000001
 30
0.0
 10
9.6892500000000013
 20
-10.011550000000002
 30
0.0
 10
9.6950099999999999
 20
-10.00863
 30
0.0
 10
9.6950099999999999
 20
-10.00863
 30
0.0
 10
9.7008100000000006
 20
-10.005710000000001
 30
0.0
 10
9.7053000000000011
 20
-10.001340000000001
 30
0.0
 10
9.7084700000000002
 20
-9.9955400000000001
 30
0.0
 10
9.7084700000000002
 20
-9.9955400000000001
 30
0.0
 10
9.7116400000000009
 20
-9.9897400000000012
 30
0.0
 10
9.7132400000000008
 20
-9.9835200000000004
 30
0.0
 10
9.7132400000000008
 20
-9.9768600000000003
 30
0.0
 10
9.7132400000000008
 20
-9.9768600000000003
 30
0.0
 10
9.7132400000000008
 20
-9.9664800000000007
 30
0.0
 10
9.7099100000000007
 20
-9.9579200000000014
 30
0.0
 10
9.7032000000000007
 20
-9.9511700000000012
 30
0.0
 10
9.7032000000000007
 20
-9.9511700000000012
 30
0.0
 10
9.696530000000001
 20
-9.9444200000000009
 30
0.0
 10
9.6880600000000001
 20
-9.9410500000000006
 30
0.0
 10
9.6777700000000006
 20
-9.9410500000000006
 30
0.0
 10
9.6777700000000006
 20
-9.9410500000000006
 30
0.0
 10
9.6673100000000005
 20
-9.9410500000000006
 30
0.0
 10
9.6586700000000008
 20
-9.9445100000000011
 30
0.0
 10
9.65184
 20
-9.9514600000000009
 30
0.0
 10
9.65184
 20
-9.9514600000000009
 30
0.0
 10
9.645010000000001
 20
-9.9584200000000003
 30
0.0
 10
9.6415900000000008
 20
-9.9671400000000006
 30
0.0
 10
9.6415900000000008
 20
-9.9776000000000007
 30
0.0
 10
9.6415900000000008
 20
-9.9776000000000007
 30
0.0
 10
9.6415900000000008
 20
-9.9878
 30
0.0
 10
9.6449600000000011
 20
-9.9962400000000002
 30
0.0
 10
9.6517600000000012
 20
-10.00295
 30
0.0
 10
9.6517600000000012
 20
-10.00295
 30
0.0
 10
9.6585100000000015
 20
-10.00966
 30
0.0
 10
9.6669400000000003
 20
-10.013030000000001
 30
0.0
 10
9.6770700000000005
 20
-10.013030000000001
 30
0.0
  0
SPLINE
  5
57
100
AcDbEntity
  8
Plan 1
370
    40
 62
     0
100
AcDbSpline
210
0.0
220
0.0
230
1.0
 70
     1
 71
     3
 72
    32
 73
    28
 74
     0
 42
0.0000000001
 43
0.0000000001
 40
0.0
 40
0.0
 40
0.0
 40
0.0
 40
0.1428571428571429
 40
0.1428571428571429
 40
0.1428571428571429
 40
0.1428571428571429
 40
0.2857142857142857
 40
0.2857142857142857
 40
0.2857142857142857
 40
0.2857142857142857
 40
0.4285714285714286
 40
0.4285714285714286
 40
0.4285714285714286
 40
0.4285714285714286
 40
0.5714285714285714
 40
0.5714285714285714
 40
0.5714285714285714
 40
0.5714285714285714
 40
0.7142857142857142
 40
0.7142857142857142
 40
0.7142857142857142
 40
0.7142857142857142
 40
0.857142857142857
 40
0.857142857142857
 40
0.857142857142857
 40
0.857142857142857
 40
1.0
 40
1.0
 40
1.0
 40
1.0
 10
-1.2270400000000001
 20
7.9575400000000007
 30
0.0
 10
-1.2270400000000001
 20
7.9575400000000007
 30
0.0
 10
-0.6231600000000001
 20
7.9588800000000006
 30
0.0
 10
-0.6231600000000001
 20
7.9588800000000006
 30
0.0
 10
-0.6231600000000001
 20
7.9588800000000006
 30
0.0
 10
-0.6231600000000001
 20
7.9588800000000006
 30
0.0
 10
-1.50485
 20
3.3904900000000002
 30
0.0
 10
-1.50485
 20
3.3904900000000002
 30
0.0
 10
-1.50485
 20
3.3904900000000002
 30
0.0
 10
-1.50485
 20
3.3904900000000002
 30
0.0
 10
-0.4949500000000001
 20
3.3910400000000003
 30
0.0
 10
-0.4949500000000001
 20
3.3910400000000003
 30
0.0
 10
-0.4949500000000001
 20
3.3910400000000003
 30
0.0
 10
-0.4949500000000001
 20
3.3910400000000003
 30
0.0
 10
0.5855900000000001
 20
8.9514200000000006
 30
0.0
 10
0.5855900000000001
 20
8.9514200000000006
 30
0.0
 10
0.5855900000000001
 20
8.9514200000000006
 30
0.0
 10
0.5855900000000001
 20
8.9514200000000006
 30
0.0
 10
-1.03684
 20
8.9508200000000002
 30
0.0
 10
-1.03684
 20
8.9508200000000002
 30
0.0
 10
-1.03684
 20
8.9508200000000002
 30
0.0
 10
-1.03684
 20
8.9508200000000002
 30
0.0
 10
-1.2270400000000001
 20
7.9575400000000007
 30
0.0
 10
-1.2270400000000001
 20
7.9575400000000007
 30
0.0
 10
-1.2270400000000001
 20
7.9575400000000007
 30
0.0
 10
-1.2270400000000001
 20
7.9575400000000007
 30
0.0
 10
-1.2270400000000001
 20
7.9575400000000007
 30
0.0
 10
-1.2270400000000001
 20
7.9575400000000007
 30
0.0
  0
SPLINE
  5
58
100
AcDbEntity
  8
Plan 1
370
    40
 62
     0
100
AcDbSpline
210
0.0
220
0.0
230
1.0
 70
     1
 71
     3
 72
    44
 73
    40
 74
     0
 42
0.0000000001
 43
0.0000000001
 40
0.0
 40
0.0
 40
0.0
 40
0.0
 40
0.1
 40
0.1
 40
0.1
 40
0.1
 40
0.2
 40
0.2
 40
0.2
 40
0.2
 40
0.3
 40
0.3
 40
0.3
 40
0.3
 40
0.4
 40
0.4
 40
0.4
 40
0.4
 40
0.5
 40
0.5
 40
0.5
 40
0.5
 40
0.6
 40
0.6
 40
0.6
 40
0.6
 40
0.7
 40
0.7
 40
0.7
 40
0.7
 40
0.7999999999999999
 40
0.7999999999999999
 40
0.7999999999999999
 40
0.7999999999999999
 40
0.8999999999999999
 40
0.8999999999999999
 40
0.8999999999999999
 40
0.8999999999999999
 40
1.0
 40
1.0
 40
1.0
 40
1.0
 10
-4.3532500000000001
 20
3.3898900000000003
 30
0.0
 10
-4.3532500000000001
 20
3.3898900000000003
 30
0.0
 10
-3.9156900000000001
 20
5.6258100000000004
 30
0.0
 10
-3.9156900000000001
 20
5.6258100000000004
 30
0.0
 10
-3.9156900000000001
 20
5.6258100000000004
 30
0.0
 10
-3.9156900000000001
 20
5.6258100000000004
 30
0.0
 10
-2.3496200000000003
 20
5.6280000000000001
 30
0.0
 10
-2.3496200000000003
 20
5.6280000000000001
 30
0.0
 10
-2.3496200000000003
 20
5.6280000000000001
 30
0.0
 10
-2.3496200000000003
 20
5.6280000000000001
 30
0.0
 10
-2.1444000000000001
 20
6.6876900000000008
 30
0.0
 10
-2.1444000000000001
 20
6.6876900000000008
 30
0.0
 10
-2.1444000000000001
 20
6.6876900000000008
 30
0.0
 10
-2.1444000000000001
 20
6.6876900000000008
 30
0.0
 10
-3.7103100000000002
 20
6.6813700000000003
 30
0.0
 10
-3.7103100000000002
 20
6.6813700000000003
 30
0.0
 10
-3.7103100000000002
 20
6.6813700000000003
 30
0.0
 10
-3.7103100000000002
 20
6.6813700000000003
 30
0.0
 10
-3.4566800000000004
 20
7.9687800000000006
 30
0.0
 10
-3.4566800000000004
 20
7.9687800000000006
 30
0.0
 10
-3.4566800000000004
 20
7.9687800000000006
 30
0.0
 10
-3.4566800000000004
 20
7.9687800000000006
 30
0.0
 10
-1.6564400000000001
 20
7.9702800000000007
 30
0.0
 10
-1.6564400000000001
 20
7.9702800000000007
 30
0.0
 10
-1.6564400000000001
 20
7.9702800000000007
 30
0.0
 10
-1.6564400000000001
 20
7.9702800000000007
 30
0.0
 10
-1.4687800000000002
 20
8.9452000000000016
 30
0.0
 10
-1.4687800000000002
 20
8.9452000000000016
 30
0.0
 10
-1.4687800000000002
 20
8.9452000000000016
 30
0.0
 10
-1.4687800000000002
 20
8.9452000000000016
 30
0.0
 10
-4.3464300000000007
 20
8.9442000000000004
 30
0.0
 10
-4.3464300000000007
 20
8.9442000000000004
 30
0.0
 10
-4.3464300000000007
 20
8.9442000000000004
 30
0.0
 10
-4.3464300000000007
 20
8.9442000000000004
 30
0.0
 10
-5.4286200000000004
 20
3.3886500000000002
 30
0.0
 10
-5.4286200000000004
 20
3.3886500000000002
 30
0.0
 10
-5.4286200000000004
 20
3.3886500000000002
 30
0.0
 10
-5.4286200000000004
 20
3.3886500000000002
 30
0.0
 10
-4.3532500000000001
 20
3.3898900000000003
 30
0.0
 10
-4.3532500000000001
 20
3.3898900000000003
 30
0.0
  0
SPLINE
  5
59
100
AcDbEntity
  8
Plan 1
370
    40
100
AcDbSpline
210
0.0
220
0.0
230
1.0
 70
     0
 71
     3
 72
    44
 73
    40
 74
     0
 42
0.0000000001
 43
0.0000000001
 40
0.0
 40
0.0
 40
0.0
 40
0.0
 40
0.1
 40
0.1
 40
0.1
 40
0.1
 40
0.2
 40
0.2
 40
0.2
 40
0.2
 40
0.3
 40
0.3
 40
0.3
 40
0.3
 40
0.4
 40
0.4
 40
0.4
 40
0.4
 40
0.5
 40
0.5
 40
0.5
 40
0.5
 40
0.6
 40
0.6
 40
0.6
 40
0.6
 40
0.7
 40
0.7
 40
0.7
 40
0.7
 40
0.7999999999999999
 40
0.7999999999999999
 40
0.7999999999999999
 40
0.7999999999999999
 40
0.8999999999999999
 40
0.8999999999999999
 40
0.8999999999999999
 40
0.8999999999999999
 40
1.0
 40
1.0
 40
1.0
 40
1.0
 10
-4.3532500000000001
 20
3.3898900000000003
 30
0.0
 10
-4.3532500000000001
 20
3.3898900000000003
 30
0.0
 10
-3.9156900000000001
 20
5.6258100000000004
 30
0.0
 10
-3.9156900000000001
 20
5.6258100000000004
 30
0.0
 10
-3.9156900000000001
 20
5.6258100000000004
 30
0.0
 10
-3.9156900000000001
 20
5.6258100000000004
 30
0.0
 10
-2.3496200000000003
 20
5.6280000000000001
 30
0.0
 10
-2.3496200000000003
 20
5.6280000000000001
 30
0.0
 10
-2.3496200000000003
 20
5.6280000000000001
 30
0.0
 10
-2.3496200000000003
 20
5.6280000000000001
 30
0.0
 10
-2.1444000000000001
 20
6.6876900000000008
 30
0.0
 10
-2.1444000000000001
 20
6.6876900000000008
 30
0.0
 10
-2.1444000000000001
 20
6.6876900000000008
 30
0.0
 10
-2.1444000000000001
 20
6.6876900000000008
 30
0.0
 10
-3.7103100000000002
 20
6.6813700000000003
 30
0.0
 10
-3.7103100000000002
 20
6.6813700000000003
 30
0.0
 10
-3.7103100000000002
 20
6.6813700000000003
 30
0.0
 10
-3.7103100000000002
 20
6.6813700000000003
 30
0.0
 10
-3.4566800000000004
 20
7.9687800000000006
 30
0.0
 10
-3.4566800000000004
 20
7.9687800000000006
 30
0.0
 10
-3.4566800000000004
 20
7.9687800000000006
 30
0.0
 10
-3.4566800000000004
 20
7.9687800000000006
 30
0.0
 10
-1.6564400000000001
 20
7.9702800000000007
 30
0.0
 10
-1.6564400000000001
 20
7.9702800000000007
 30
0.0
 10
-1.6564400000000001
 20
7.9702800000000007
 30
0.0
 10
-1.6564400000000001
 20
7.9702800000000007
 30
0.0
 10
-1.4687800000000002
 20
8.9452000000000016
 30
0.0
 10
-1.4687800000000002
 20
8.9452000000000016
 30
0.0
 10
-1.4687800000000002
 20
8.9452000000000016
 30
0.0
 10
-1.4687800000000002
 20
8.9452000000000016
 30
0.0
 10
-4.3464300000000007
 20
8.9442000000000004
 30
0.0
 10
-4.3464300000000007
 20
8.9442000000000004
 30
0.0
 10
-4.3464300000000007
 20
8.9442000000000004
 30
0.0
 10
-4.3464300000000007
 20
8.9442000000000004
 30
0.0
 10
-5.4286200000000004
 20
3.3886500000000002
 30
0.0
 10
-5.4286200000000004
 20
3.3886500000000002
 30
0.0
 10
-5.4286200000000004
 20
3.3886500000000002
 30
0.0
 10
-5.4286200000000004
 20
3.3886500000000002
 30
0.0
 10
-4.3532500000000001
 20
3.3898900000000003
 30
0.0
 10
-4.3532500000000001
 20
3.3898900000000003
 30
0.0
  0
SPLINE
  5
5A
100
AcDbEntity
  8
Plan 1
370
    40
 62
     0
100
AcDbSpline
210
0.0
220
0.0
230
1.0
 70
     1
 71
     3
 72
    24
 73
    20
 74
     0
 42
0.0000000001
 43
0.0000000001
 40
0.0
 40
0.0
 40
0.0
 40
0.0
 40
0.2
 40
0.2
 40
0.2
 40
0.2
 40
0.4
 40
0.4
 40
0.4
 40
0.4
 40
0.6000000000000001
 40
0.6000000000000001
 40
0.6000000000000001
 40
0.6000000000000001
 40
0.8
 40
0.8
 40
0.8
 40
0.8
 40
1.0
 40
1.0
 40
1.0
 40
1.0
 10
1.2572800000000002
 20
6.7782400000000003
 30
0.0
 10
1.08131
 20
6.6623700000000001
 30
0.0
 10
0.8413100000000001
 20
6.432970000000001
 30
0.0
 10
0.69718
 20
6.2266500000000002
 30
0.0
 10
0.69718
 20
6.2266500000000002
 30
0.0
 10
0.08515
 20
5.3503800000000004
 30
0.0
 10
0.20589
 20
4.2090400000000008
 30
0.0
 10
0.9668800000000001
 20
3.6775500000000001
 30
0.0
 10
0.9668800000000001
 20
3.6775500000000001
 30
0.0
 10
1.7278300000000002
 20
3.1460100000000004
 30
0.0
 10
2.8409600000000004
 20
3.4255100000000005
 30
0.0
 10
3.4530500000000002
 20
4.3017799999999999
 30
0.0
 10
3.4530500000000002
 20
4.3017799999999999
 30
0.0
 10
3.9885700000000002
 20
5.0685400000000005
 30
0.0
 10
3.9965300000000004
 20
5.9937700000000005
 30
0.0
 10
3.4720000000000004
 20
6.5802800000000001
 30
0.0
 10
3.4720000000000004
 20
6.5802800000000001
 30
0.0
 10
3.4720000000000004
 20
6.5802800000000001
 30
0.0
 10
1.2572800000000002
 20
6.7782400000000003
 30
0.0
 10
1.2572800000000002
 20
6.7782400000000003
 30
0.0
  0
SPLINE
  5
5B
100
AcDbEntity
  8
Plan 1
370
    40
100
AcDbSpline
210
0.0
220
0.0
230
1.0
 70
     0
 71
     3
 72
    20
 73
    16
 74
     0
 42
0.0000000001
 43
0.0000000001
 40
0.0
 40
0.0
 40
0.0
 40
0.0
 40
0.25
 40
0.25
 40
0.25
 40
0.25
 40
0.5
 40
0.5
 40
0.5
 40
0.5
 40
0.75
 40
0.75
 40
0.75
 40
0.75
 40
1.0
 40
1.0
 40
1.0
 40
1.0
 10
1.2572800000000002
 20
6.7782400000000003
 30
0.0
 10
1.08131
 20
6.6623700000000001
 30
0.0
 10
0.8413100000000001
 20
6.432970000000001
 30
0.0
 10
0.69718
 20
6.2266500000000002
 30
0.0
 10
0.69718
 20
6.2266500000000002
 30
0.0
 10
0.08515
 20
5.3503800000000004
 30
0.0
 10
0.20589
 20
4.2090400000000008
 30
0.0
 10
0.9668800000000001
 20
3.6775500000000001
 30
0.0
 10
0.9668800000000001
 20
3.6775500000000001
 30
0.0
 10
1.7278300000000002
 20
3.1460100000000004
 30
0.0
 10
2.8409600000000004
 20
3.4255100000000005
 30
0.0
 10
3.4530500000000002
 20
4.3017799999999999
 30
0.0
 10
3.4530500000000002
 20
4.3017799999999999
 30
0.0
 10
3.9885700000000002
 20
5.0685400000000005
 30
0.0
 10
3.9965300000000004
 20
5.9937700000000005
 30
0.0
 10
3.4720000000000004
 20
6.5802800000000001
 30
0.0
  0
SPLINE
  5
5C
100
AcDbEntity
  8
Plan 1
370
    40
 62
     7
100
AcDbSpline
210
0.0
220
0.0
230
1.0
 70
     1
 71
     3
 72
    28
 73
    24
 74
     0
 42
0.0000000001
 43
0.0000000001
 40
0.0
 40
0.0
 40
0.0
 40
0.0
 40
0.1666666666666667
 40
0.1666666666666667
 40
0.1666666666666667
 40
0.1666666666666667
 40
0.3333333333333333
 40
0.3333333333333333
 40
0.3333333333333333
 40
0.3333333333333333
 40
0.5
 40
0.5
 40
0.5
 40
0.5
 40
0.6666666666666666
 40
0.6666666666666666
 40
0.6666666666666666
 40
0.6666666666666666
 40
0.8333333333333333
 40
0.8333333333333333
 40
0.8333333333333333
 40
0.8333333333333333
 40
1.0
 40
1.0
 40
1.0
 40
1.0
 10
1.55017
 20
4.5126300000000006
 30
0.0
 10
1.8499200000000002
 20
4.3032200000000005
 30
0.0
 10
2.3279700000000001
 20
4.4699900000000001
 30
0.0
 10
2.6179200000000002
 20
4.8850600000000002
 30
0.0
 10
2.6179200000000002
 20
4.8850600000000002
 30
0.0
 10
2.9078200000000001
 20
5.3001900000000006
 30
0.0
 10
2.8998600000000003
 20
5.8064000000000009
 30
0.0
 10
2.60006
 20
6.0158000000000005
 30
0.0
 10
2.60006
 20
6.0158000000000005
 30
0.0
 10
2.3002600000000002
 20
6.2251600000000007
 30
0.0
 10
1.8222600000000002
 20
6.0584400000000009
 30
0.0
 10
1.5323100000000001
 20
5.6433700000000009
 30
0.0
 10
1.5323100000000001
 20
5.6433700000000009
 30
0.0
 10
1.24241
 20
5.2283000000000008
 30
0.0
 10
1.2503700000000002
 20
4.7220300000000002
 30
0.0
 10
1.55017
 20
4.5126300000000006
 30
0.0
 10
1.55017
 20
4.5126300000000006
 30
0.0
 10
1.55017
 20
4.5126300000000006
 30
0.0
 10
1.55017
 20
4.5126300000000006
 30
0.0
 10
1.55017
 20
4.5126300000000006
 30
0.0
 10
1.55017
 20
4.5126300000000006
 30
0.0
 10
1.55017
 20
4.5126300000000006
 30
0.0
 10
1.55017
 20
4.5126300000000006
 30
0.0
 10
1.55017
 20
4.5126300000000006
 30
0.0
  0
SPLINE
  5
5D
100
AcDbEntity
  8
Plan 1
370
    40
 62
     0
100
AcDbSpline
210
0.0
220
0.0
230
1.0
 70
     1
 71
     3
 72
    24
 73
    20
 74
     0
 42
0.0000000001
 43
0.0000000001
 40
0.0
 40
0.0
 40
0.0
 40
0.0
 40
0.2
 40
0.2
 40
0.2
 40
0.2
 40
0.4
 40
0.4
 40
0.4
 40
0.4
 40
0.6000000000000001
 40
0.6000000000000001
 40
0.6000000000000001
 40
0.6000000000000001
 40
0.8
 40
0.8
 40
0.8
 40
0.8
 40
1.0
 40
1.0
 40
1.0
 40
1.0
 10
3.4720000000000004
 20
6.5802800000000001
 30
0.0
 10
3.5264800000000003
 20
6.6389900000000006
 30
0.0
 10
3.5777700000000001
 20
6.7024200000000009
 30
0.0
 10
3.6252300000000002
 20
6.7703800000000003
 30
0.0
 10
3.6252300000000002
 20
6.7703800000000003
 30
0.0
 10
4.1084200000000006
 20
7.4622200000000003
 30
0.0
 10
4.0140900000000004
 20
8.3625100000000003
 30
0.0
 10
3.4145400000000001
 20
8.7813200000000009
 30
0.0
 10
3.4145400000000001
 20
8.7813200000000009
 30
0.0
 10
2.8149900000000003
 20
9.2000700000000002
 30
0.0
 10
1.9372300000000002
 20
8.9787300000000005
 30
0.0
 10
1.4540000000000002
 20
8.2869400000000013
 30
0.0
 10
1.4540000000000002
 20
8.2869400000000013
 30
0.0
 10
1.1192200000000001
 20
7.807640000000001
 30
0.0
 10
1.06166
 20
7.2282900000000003
 30
0.0
 10
1.2572800000000002
 20
6.7782400000000003
 30
0.0
 10
1.2572800000000002
 20
6.7782400000000003
 30
0.0
 10
1.2572800000000002
 20
6.7782400000000003
 30
0.0
 10
3.4720000000000004
 20
6.5802800000000001
 30
0.0
 10
3.4720000000000004
 20
6.5802800000000001
 30
0.0
  0
SPLINE
  5
5E
100
AcDbEntity
  8
Plan 1
370
    40
100
AcDbSpline
210
0.0
220
0.0
230
1.0
 70
     0
 71
     3
 72
    20
 73
    16
 74
     0
 42
0.0000000001
 43
0.0000000001
 40
0.0
 40
0.0
 40
0.0
 40
0.0
 40
0.25
 40
0.25
 40
0.25
 40
0.25
 40
0.5
 40
0.5
 40
0.5
 40
0.5
 40
0.75
 40
0.75
 40
0.75
 40
0.75
 40
1.0
 40
1.0
 40
1.0
 40
1.0
 10
3.4720000000000004
 20
6.5802800000000001
 30
0.0
 10
3.5264800000000003
 20
6.6389900000000006
 30
0.0
 10
3.5777700000000001
 20
6.7024200000000009
 30
0.0
 10
3.6252300000000002
 20
6.7703800000000003
 30
0.0
 10
3.6252300000000002
 20
6.7703800000000003
 30
0.0
 10
4.1084200000000006
 20
7.4622200000000003
 30
0.0
 10
4.0140900000000004
 20
8.3625100000000003
 30
0.0
 10
3.4145400000000001
 20
8.7813200000000009
 30
0.0
 10
3.4145400000000001
 20
8.7813200000000009
 30
0.0
 10
2.8149900000000003
 20
9.2000700000000002
 30
0.0
 10
1.9372300000000002
 20
8.9787300000000005
 30
0.0
 10
1.4540000000000002
 20
8.2869400000000013
 30
0.0
 10
1.4540000000000002
 20
8.2869400000000013
 30
0.0
 10
1.1192200000000001
 20
7.807640000000001
 30
0.0
 10
1.06166
 20
7.2282900000000003
 30
0.0
 10
1.2572800000000002
 20
6.7782400000000003
 30
0.0
  0
SPLINE
  5
5F
100
AcDbEntity
  8
Plan 1
370
    40
 62
     7
100
AcDbSpline
210
0.0
220
0.0
230
1.0
 70
     1
 71
     3
 72
    28
 73
    24
 74
     0
 42
0.0000000001
 43
0.0000000001
 40
0.0
 40
0.0
 40
0.0
 40
0.0
 40
0.1666666666666667
 40
0.1666666666666667
 40
0.1666666666666667
 40
0.1666666666666667
 40
0.3333333333333333
 40
0.3333333333333333
 40
0.3333333333333333
 40
0.3333333333333333
 40
0.5
 40
0.5
 40
0.5
 40
0.5
 40
0.6666666666666666
 40
0.6666666666666666
 40
0.6666666666666666
 40
0.6666666666666666
 40
0.8333333333333333
 40
0.8333333333333333
 40
0.8333333333333333
 40
0.8333333333333333
 40
1.0
 40
1.0
 40
1.0
 40
1.0
 10
2.2479300000000002
 20
7.1650100000000005
 30
0.0
 10
2.4324000000000003
 20
7.036150000000001
 30
0.0
 10
2.7125500000000002
 20
7.118640000000001
 30
0.0
 10
2.8735900000000001
 20
7.3492300000000004
 30
0.0
 10
2.8735900000000001
 20
7.3492300000000004
 30
0.0
 10
3.0346400000000004
 20
7.5798800000000011
 30
0.0
 10
3.0156300000000003
 20
7.8712700000000009
 30
0.0
 10
2.8312100000000004
 20
8.0001300000000004
 30
0.0
 10
2.8312100000000004
 20
8.0001300000000004
 30
0.0
 10
2.6467300000000002
 20
8.1289800000000003
 30
0.0
 10
2.3665800000000004
 20
8.0464900000000004
 30
0.0
 10
2.2055400000000001
 20
7.8158500000000011
 30
0.0
 10
2.2055400000000001
 20
7.8158500000000011
 30
0.0
 10
2.0444400000000003
 20
7.585300000000001
 30
0.0
 10
2.06345
 20
7.2938600000000005
 30
0.0
 10
2.2479300000000002
 20
7.1650100000000005
 30
0.0
 10
2.2479300000000002
 20
7.1650100000000005
 30
0.0
 10
2.2479300000000002
 20
7.1650100000000005
 30
0.0
 10
2.2479300000000002
 20
7.1650100000000005
 30
0.0
 10
2.2479300000000002
 20
7.1650100000000005
 30
0.0
 10
2.2479300000000002
 20
7.1650100000000005
 30
0.0
 10
2.2479300000000002
 20
7.1650100000000005
 30
0.0
 10
2.2479300000000002
 20
7.1650100000000005
 30
0.0
 10
2.2479300000000002
 20
7.1650100000000005
 30
0.0
  0
SPLINE
  5
60
100
AcDbEntity
  8
Plan 1
370
    40
 62
     0
100
AcDbSpline
210
0.0
220
0.0
230
1.0
 70
     1
 71
     3
 72
    24
 73
    20
 74
     0
 42
0.0000000001
 43
0.0000000001
 40
0.0
 40
0.0
 40
0.0
 40
0.0
 40
0.2
 40
0.2
 40
0.2
 40
0.2
 40
0.4
 40
0.4
 40
0.4
 40
0.4
 40
0.6000000000000001
 40
0.6000000000000001
 40
0.6000000000000001
 40
0.6000000000000001
 40
0.8
 40
0.8
 40
0.8
 40
0.8
 40
1.0
 40
1.0
 40
1.0
 40
1.0
 10
2.8856800000000002
 20
0.3292600000000001
 30
0.0
 10
2.8856800000000002
 20
0.3292600000000001
 30
0.0
 10
3.0982700000000003
 20
1.3715900000000001
 30
0.0
 10
3.0982700000000003
 20
1.3715900000000001
 30
0.0
 10
3.0982700000000003
 20
1.3715900000000001
 30
0.0
 10
3.0982700000000003
 20
1.3715900000000001
 30
0.0
 10
-5.8046300000000004
 20
1.3611900000000001
 30
0.0
 10
-5.8046300000000004
 20
1.3611900000000001
 30
0.0
 10
-5.8046300000000004
 20
1.3611900000000001
 30
0.0
 10
-5.8046300000000004
 20
1.3611900000000001
 30
0.0
 10
-6.0172200000000009
 20
0.31886
 30
0.0
 10
-6.0172200000000009
 20
0.31886
 30
0.0
 10
-6.0172200000000009
 20
0.31886
 30
0.0
 10
-6.0172200000000009
 20
0.31886
 30
0.0
 10
2.8856800000000002
 20
0.3292600000000001
 30
0.0
 10
2.8856800000000002
 20
0.3292600000000001
 30
0.0
 10
2.8856800000000002
 20
0.3292600000000001
 30
0.0
 10
2.8856800000000002
 20
0.3292600000000001
 30
0.0
 10
2.8856800000000002
 20
0.3292600000000001
 30
0.0
 10
2.8856800000000002
 20
0.3292600000000001
 30
0.0
  0
SPLINE
  5
61
100
AcDbEntity
  8
Plan 1
370
    40
 62
     0
100
AcDbSpline
210
0.0
220
0.0
230
1.0
 70
     1
 71
     3
 72
    24
 73
    20
 74
     0
 42
0.0000000001
 43
0.0000000001
 40
0.0
 40
0.0
 40
0.0
 40
0.0
 40
0.2
 40
0.2
 40
0.2
 40
0.2
 40
0.4
 40
0.4
 40
0.4
 40
0.4
 40
0.6000000000000001
 40
0.6000000000000001
 40
0.6000000000000001
 40
0.6000000000000001
 40
0.8
 40
0.8
 40
0.8
 40
0.8
 40
1.0
 40
1.0
 40
1.0
 40
1.0
 10
3.1912100000000003
 20
1.8042800000000001
 30
0.0
 10
3.1912100000000003
 20
1.8042800000000001
 30
0.0
 10
3.3894100000000003
 20
2.8466100000000001
 30
0.0
 10
3.3894100000000003
 20
2.8466100000000001
 30
0.0
 10
3.3894100000000003
 20
2.8466100000000001
 30
0.0
 10
3.3894100000000003
 20
2.8466100000000001
 30
0.0
 10
-5.5134400000000001
 20
2.8362100000000003
 30
0.0
 10
-5.5134400000000001
 20
2.8362100000000003
 30
0.0
 10
-5.5134400000000001
 20
2.8362100000000003
 30
0.0
 10
-5.5134400000000001
 20
2.8362100000000003
 30
0.0
 10
-5.7117000000000004
 20
1.7938300000000003
 30
0.0
 10
-5.7117000000000004
 20
1.7938300000000003
 30
0.0
 10
-5.7117000000000004
 20
1.7938300000000003
 30
0.0
 10
-5.7117000000000004
 20
1.7938300000000003
 30
0.0
 10
3.1912100000000003
 20
1.8042800000000001
 30
0.0
 10
3.1912100000000003
 20
1.8042800000000001
 30
0.0
 10
3.1912100000000003
 20
1.8042800000000001
 30
0.0
 10
3.1912100000000003
 20
1.8042800000000001
 30
0.0
 10
3.1912100000000003
 20
1.8042800000000001
 30
0.0
 10
3.1912100000000003
 20
1.8042800000000001
 30
0.0
  0
SPLINE
  5
62
100
AcDbEntity
  8
Plan 1
370
    40
100
AcDbSpline
210
0.0
220
0.0
230
1.0
 70
     0
 71
     3
 72
     8
 73
     4
 74
     0
 42
0.0000000001
 43
0.0000000001
 40
0.0
 40
0.0
 40
0.0
 40
0.0
 40
1.0
 40
1.0
 40
1.0
 40
1.0
 10
5.2053500000000001
 20
1.0209400000000002
 30
0.0
 10
5.2053500000000001
 20
1.0209400000000002
 30
0.0
 10
5.2053500000000001
 20
1.0209400000000002
 30
0.0
 10
5.2053500000000001
 20
1.0209400000000002
 30
0.0
  0
ELLIPSE
  5
63
100
AcDbEntity
  8
Plan 1
370
   211
100
AcDbEllipse
 10
-1.26868
 20
4.60069
 30
0.0
 11
0.0
 21
6.774210000000001
 31
0.0
210
0.0
220
0.0
230
1.0
 40
1.0
 41
0.0
 42
6.2831799999999998
  0
SPLINE
  5
64
100
AcDbEntity
  8
Plan 1
 62
     7
100
AcDbSpline
210
0.0
220
0.0
230
1.0
 70
     1
 71
     3
 72
    44
 73
    40
 74
     0
 42
0.0000000001
 43
0.0000000001
 40
0.0
 40
0.0
 40
0.0
 40
0.0
 40
0.1
 40
0.1
 40
0.1
 40
0.1
 40
0.2
 40
0.2
 40
0.2
 40
0.2
 40
0.3
 40
0.3
 40
0.3
 40
0.3
 40
0.4
 40
0.4
 40
0.4
 40
0.4
 40
0.5
 40
0.5
 40
0.5
 40
0.5
 40
0.6
 40
0.6
 40
0.6
 40
0.6
 40
0.7
 40
0.7
 40
0.7
 40
0.7
 40
0.7999999999999999
 40
0.7999999999999999
 40
0.7999999999999999
 40
0.7999999999999999
 40
0.8999999999999999
 40
0.8999999999999999
 40
0.8999999999999999
 40
0.8999999999999999
 40
1.0
 40
1.0
 40
1.0
 40
1.0
 10
-5.4473700000000003
 20
0.60899
 30
0.0
 10
-5.4473700000000003
 20
0.60899
 30
0.0
 10
-5.3521200000000002
 20
1.0635400000000002
 30
0.0
 10
-5.3521200000000002
 20
1.0635400000000002
 30
0.0
 10
-5.3521200000000002
 20
1.0635400000000002
 30
0.0
 10
-5.3521200000000002
 20
1.0635400000000002
 30
0.0
 10
-5.0339900000000002
 20
1.0635400000000002
 30
0.0
 10
-5.0339900000000002
 20
1.0635400000000002
 30
0.0
 10
-5.0339900000000002
 20
1.0635400000000002
 30
0.0
 10
-5.0339900000000002
 20
1.0635400000000002
 30
0.0
 10
-5.0501800000000001
 20
0.9875600000000001
 30
0.0
 10
-5.0501800000000001
 20
0.9875600000000001
 30
0.0
 10
-5.0501800000000001
 20
0.9875600000000001
 30
0.0
 10
-5.0501800000000001
 20
0.9875600000000001
 30
0.0
 10
-5.2746500000000003
 20
0.9875600000000001
 30
0.0
 10
-5.2746500000000003
 20
0.9875600000000001
 30
0.0
 10
-5.2746500000000003
 20
0.9875600000000001
 30
0.0
 10
-5.2746500000000003
 20
0.9875600000000001
 30
0.0
 10
-5.2976200000000002
 20
0.8784400000000001
 30
0.0
 10
-5.2976200000000002
 20
0.8784400000000001
 30
0.0
 10
-5.2976200000000002
 20
0.8784400000000001
 30
0.0
 10
-5.2976200000000002
 20
0.8784400000000001
 30
0.0
 10
-5.0773800000000007
 20
0.8784400000000001
 30
0.0
 10
-5.0773800000000007
 20
0.8784400000000001
 30
0.0
 10
-5.0773800000000007
 20
0.8784400000000001
 30
0.0
 10
-5.0773800000000007
 20
0.8784400000000001
 30
0.0
 10
-5.0932600000000008
 20
0.8024500000000001
 30
0.0
 10
-5.0932600000000008
 20
0.8024500000000001
 30
0.0
 10
-5.0932600000000008
 20
0.8024500000000001
 30
0.0
 10
-5.0932600000000008
 20
0.8024500000000001
 30
0.0
 10
-5.3133900000000001
 20
0.8024500000000001
 30
0.0
 10
-5.3133900000000001
 20
0.8024500000000001
 30
0.0
 10
-5.3133900000000001
 20
0.8024500000000001
 30
0.0
 10
-5.3133900000000001
 20
0.8024500000000001
 30
0.0
 10
-5.3537100000000004
 20
0.60899
 30
0.0
 10
-5.3537100000000004
 20
0.60899
 30
0.0
 10
-5.3537100000000004
 20
0.60899
 30
0.0
 10
-5.3537100000000004
 20
0.60899
 30
0.0
 10
-5.4473700000000003
 20
0.60899
 30
0.0
 10
-5.4473700000000003
 20
0.60899
 30
0.0
  0
SPLINE
  5
65
100
AcDbEntity
  8
Plan 1
 62
     7
100
AcDbSpline
210
0.0
220
0.0
230
1.0
 70
     1
 71
     3
 72
    52
 73
    48
 74
     0
 42
0.0000000001
 43
0.0000000001
 40
0.0
 40
0.0
 40
0.0
 40
0.0
 40
0.0833333333333333
 40
0.0833333333333333
 40
0.0833333333333333
 40
0.0833333333333333
 40
0.1666666666666667
 40
0.1666666666666667
 40
0.1666666666666667
 40
0.1666666666666667
 40
0.25
 40
0.25
 40
0.25
 40
0.25
 40
0.3333333333333333
 40
0.3333333333333333
 40
0.3333333333333333
 40
0.3333333333333333
 40
0.4166666666666666
 40
0.4166666666666666
 40
0.4166666666666666
 40
0.4166666666666666
 40
0.4999999999999999
 40
0.4999999999999999
 40
0.4999999999999999
 40
0.4999999999999999
 40
0.5833333333333333
 40
0.5833333333333333
 40
0.5833333333333333
 40
0.5833333333333333
 40
0.6666666666666666
 40
0.6666666666666666
 40
0.6666666666666666
 40
0.6666666666666666
 40
0.75
 40
0.75
 40
0.75
 40
0.75
 40
0.8333333333333334
 40
0.8333333333333334
 40
0.8333333333333334
 40
0.8333333333333334
 40
0.9166666666666667
 40
0.9166666666666667
 40
0.9166666666666667
 40
0.9166666666666667
 40
1.0
 40
1.0
 40
1.0
 40
1.0
 10
-5.0288000000000004
 20
0.78732
 30
0.0
 10
-5.0288000000000004
 20
0.8141000000000001
 30
0.0
 10
-5.02468
 20
0.8424600000000001
 30
0.0
 10
-5.0166300000000001
 20
0.8722000000000001
 30
0.0
 10
-5.0166300000000001
 20
0.8722000000000001
 30
0.0
 10
-5.0061500000000008
 20
0.9121
 30
0.0
 10
-4.9900700000000002
 20
0.9467000000000001
 30
0.0
 10
-4.9684800000000005
 20
0.9761300000000001
 30
0.0
 10
-4.9684800000000005
 20
0.9761300000000001
 30
0.0
 10
-4.9468900000000007
 20
1.0054400000000001
 30
0.0
 10
-4.9195800000000007
 20
1.0286200000000001
 30
0.0
 10
-4.8867700000000003
 20
1.04566
 30
0.0
 10
-4.8867700000000003
 20
1.04566
 30
0.0
 10
-4.8538600000000001
 20
1.0628000000000002
 30
0.0
 10
-4.8165000000000004
 20
1.0712700000000002
 30
0.0
 10
-4.7744900000000001
 20
1.0712700000000002
 30
0.0
 10
-4.7744900000000001
 20
1.0712700000000002
 30
0.0
 10
-4.7182900000000005
 20
1.0712700000000002
 30
0.0
 10
-4.6728900000000007
 20
1.0538100000000001
 30
0.0
 10
-4.63828
 20
1.01888
 30
0.0
 10
-4.63828
 20
1.01888
 30
0.0
 10
-4.6035600000000008
 20
0.9839600000000001
 30
0.0
 10
-4.5863100000000001
 20
0.9376000000000001
 30
0.0
 10
-4.5863100000000001
 20
0.8800300000000001
 30
0.0
 10
-4.5863100000000001
 20
0.8800300000000001
 30
0.0
 10
-4.5863100000000001
 20
0.8319800000000001
 30
0.0
 10
-4.5975300000000008
 20
0.7856300000000001
 30
0.0
 10
-4.6200700000000001
 20
0.74075
 30
0.0
 10
-4.6200700000000001
 20
0.74075
 30
0.0
 10
-4.64262
 20
0.6958800000000001
 30
0.0
 10
-4.6732000000000005
 20
0.6613800000000001
 30
0.0
 10
-4.71183
 20
0.6372500000000001
 30
0.0
 10
-4.71183
 20
0.6372500000000001
 30
0.0
 10
-4.7505700000000006
 20
0.6130100000000001
 30
0.0
 10
-4.7942800000000005
 20
0.6009500000000001
 30
0.0
 10
-4.84307
 20
0.6009500000000001
 30
0.0
 10
-4.84307
 20
0.6009500000000001
 30
0.0
 10
-4.8854000000000006
 20
0.6009500000000001
 30
0.0
 10
-4.92096
 20
0.61058
 30
0.0
 10
-4.9497500000000008
 20
0.62973
 30
0.0
 10
-4.9497500000000008
 20
0.62973
 30
0.0
 10
-4.9784300000000004
 20
0.649
 30
0.0
 10
-4.9987500000000002
 20
0.67281
 30
0.0
 10
-5.0108100000000002
 20
0.70128
 30
0.0
 10
-5.0108100000000002
 20
0.70128
 30
0.0
 10
-5.0227700000000004
 20
0.7296400000000001
 30
0.0
 10
-5.0288000000000004
 20
0.7583200000000001
 30
0.0
 10
-5.0288000000000004
 20
0.78732
 30
0.0
  0
SPLINE
  5
66
100
AcDbEntity
  8
Plan 1
 62
     7
100
AcDbSpline
210
0.0
220
0.0
230
1.0
 70
     1
 71
     3
 72
    40
 73
    36
 74
     0
 42
0.0000000001
 43
0.0000000001
 40
0.0
 40
0.0
 40
0.0
 40
0.0
 40
0.1111111111111111
 40
0.1111111111111111
 40
0.1111111111111111
 40
0.1111111111111111
 40
0.2222222222222222
 40
0.2222222222222222
 40
0.2222222222222222
 40
0.2222222222222222
 40
0.3333333333333333
 40
0.3333333333333333
 40
0.3333333333333333
 40
0.3333333333333333
 40
0.4444444444444444
 40
0.4444444444444444
 40
0.4444444444444444
 40
0.4444444444444444
 40
0.5555555555555556
 40
0.5555555555555556
 40
0.5555555555555556
 40
0.5555555555555556
 40
0.6666666666666667
 40
0.6666666666666667
 40
0.6666666666666667
 40
0.6666666666666667
 40
0.7777777777777779
 40
0.7777777777777779
 40
0.7777777777777779
 40
0.7777777777777779
 40
0.8888888888888891
 40
0.8888888888888891
 40
0.8888888888888891
 40
0.8888888888888891
 40
1.0
 40
1.0
 40
1.0
 40
1.0
 10
-4.9364100000000004
 20
0.78912
 30
0.0
 10
-4.9364100000000004
 20
0.7579
 30
0.0
 10
-4.9268900000000002
 20
0.7317600000000001
 30
0.0
 10
-4.9078400000000002
 20
0.7107000000000001
 30
0.0
 10
-4.9078400000000002
 20
0.7107000000000001
 30
0.0
 10
-4.8887900000000002
 20
0.68964
 30
0.0
 10
-4.86381
 20
0.67905
 30
0.0
 10
-4.8328000000000007
 20
0.67905
 30
0.0
 10
-4.8328000000000007
 20
0.67905
 30
0.0
 10
-4.8076100000000004
 20
0.67905
 30
0.0
 10
-4.7833800000000002
 20
0.6874100000000001
 30
0.0
 10
-4.7600900000000008
 20
0.70403
 30
0.0
 10
-4.7600900000000008
 20
0.70403
 30
0.0
 10
-4.7368100000000002
 20
0.7206400000000001
 30
0.0
 10
-4.7176500000000008
 20
0.7458300000000001
 30
0.0
 10
-4.7024100000000004
 20
0.7797000000000001
 30
0.0
 10
-4.7024100000000004
 20
0.7797000000000001
 30
0.0
 10
-4.6872800000000003
 20
0.8134600000000001
 30
0.0
 10
-4.6796600000000002
 20
0.8463700000000001
 30
0.0
 10
-4.6796600000000002
 20
0.8784400000000001
 30
0.0
 10
-4.6796600000000002
 20
0.8784400000000001
 30
0.0
 10
-4.6796600000000002
 20
0.9142100000000001
 30
0.0
 10
-4.6892900000000006
 20
0.9422600000000001
 30
0.0
 10
-4.70845
 20
0.9625800000000001
 30
0.0
 10
-4.70845
 20
0.9625800000000001
 30
0.0
 10
-4.7277100000000001
 20
0.9830100000000001
 30
0.0
 10
-4.7521500000000003
 20
0.9931700000000001
 30
0.0
 10
-4.782
 20
0.9931700000000001
 30
0.0
 10
-4.782
 20
0.9931700000000001
 30
0.0
 10
-4.82761
 20
0.9931700000000001
 30
0.0
 10
-4.8647600000000004
 20
0.97189
 30
0.0
 10
-4.89344
 20
0.9292400000000001
 30
0.0
 10
-4.89344
 20
0.9292400000000001
 30
0.0
 10
-4.9220200000000007
 20
0.8867
 30
0.0
 10
-4.9364100000000004
 20
0.8400200000000001
 30
0.0
 10
-4.9364100000000004
 20
0.78912
 30
0.0
  0
SPLINE
  5
67
100
AcDbEntity
  8
Plan 1
 62
     7
100
AcDbSpline
210
0.0
220
0.0
230
1.0
 70
     1
 71
     3
 72
    68
 73
    64
 74
     0
 42
0.0000000001
 43
0.0000000001
 40
0.0
 40
0.0
 40
0.0
 40
0.0
 40
0.0625
 40
0.0625
 40
0.0625
 40
0.0625
 40
0.125
 40
0.125
 40
0.125
 40
0.125
 40
0.1875
 40
0.1875
 40
0.1875
 40
0.1875
 40
0.25
 40
0.25
 40
0.25
 40
0.25
 40
0.3125
 40
0.3125
 40
0.3125
 40
0.3125
 40
0.375
 40
0.375
 40
0.375
 40
0.375
 40
0.4375
 40
0.4375
 40
0.4375
 40
0.4375
 40
0.5
 40
0.5
 40
0.5
 40
0.5
 40
0.5625
 40
0.5625
 40
0.5625
 40
0.5625
 40
0.625
 40
0.625
 40
0.625
 40
0.625
 40
0.6875
 40
0.6875
 40
0.6875
 40
0.6875
 40
0.75
 40
0.75
 40
0.75
 40
0.75
 40
0.8125
 40
0.8125
 40
0.8125
 40
0.8125
 40
0.875
 40
0.875
 40
0.875
 40
0.875
 40
0.9375
 40
0.9375
 40
0.9375
 40
0.9375
 40
1.0
 40
1.0
 40
1.0
 40
1.0
 10
-4.4688400000000001
 20
0.60899
 30
0.0
 10
-4.4688400000000001
 20
0.60899
 30
0.0
 10
-4.5624000000000002
 20
0.60899
 30
0.0
 10
-4.5624000000000002
 20
0.60899
 30
0.0
 10
-4.5624000000000002
 20
0.60899
 30
0.0
 10
-4.5624000000000002
 20
0.60899
 30
0.0
 10
-4.4672600000000005
 20
1.0635400000000002
 30
0.0
 10
-4.4672600000000005
 20
1.0635400000000002
 30
0.0
 10
-4.4672600000000005
 20
1.0635400000000002
 30
0.0
 10
-4.4672600000000005
 20
1.0635400000000002
 30
0.0
 10
-4.2654300000000003
 20
1.0635400000000002
 30
0.0
 10
-4.2654300000000003
 20
1.0635400000000002
 30
0.0
 10
-4.2654300000000003
 20
1.0635400000000002
 30
0.0
 10
-4.2307200000000007
 20
1.0635400000000002
 30
0.0
 10
-4.2036199999999999
 20
1.0599500000000002
 30
0.0
 10
-4.1843600000000007
 20
1.0528600000000001
 30
0.0
 10
-4.1843600000000007
 20
1.0528600000000001
 30
0.0
 10
-4.165
 20
1.04566
 30
0.0
 10
-4.14933
 20
1.03264
 30
0.0
 10
-4.13748
 20
1.01359
 30
0.0
 10
-4.13748
 20
1.01359
 30
0.0
 10
-4.1256300000000001
 20
0.99465
 30
0.0
 10
-4.1196999999999999
 20
0.9715800000000001
 30
0.0
 10
-4.1196999999999999
 20
0.9444800000000001
 30
0.0
 10
-4.1196999999999999
 20
0.9444800000000001
 30
0.0
 10
-4.1196999999999999
 20
0.90585
 30
0.0
 10
-4.1312300000000004
 20
0.8738900000000001
 30
0.0
 10
-4.1544100000000004
 20
0.8488100000000001
 30
0.0
 10
-4.1544100000000004
 20
0.8488100000000001
 30
0.0
 10
-4.1775900000000004
 20
0.8237300000000001
 30
0.0
 10
-4.2126200000000003
 20
0.8081700000000001
 30
0.0
 10
-4.2595000000000001
 20
0.8021400000000001
 30
0.0
 10
-4.2595000000000001
 20
0.8021400000000001
 30
0.0
 10
-4.2475500000000004
 20
0.7914500000000001
 30
0.0
 10
-4.2362200000000003
 20
0.77727
 30
0.0
 10
-4.2257400000000001
 20
0.7597
 30
0.0
 10
-4.2257400000000001
 20
0.7597
 30
0.0
 10
-4.20479
 20
0.72414
 30
0.0
 10
-4.18161
 20
0.6738700000000001
 30
0.0
 10
-4.1558900000000003
 20
0.60899
 30
0.0
 10
-4.1558900000000003
 20
0.60899
 30
0.0
 10
-4.1558900000000003
 20
0.60899
 30
0.0
 10
-4.2564400000000004
 20
0.60899
 30
0.0
 10
-4.2564400000000004
 20
0.60899
 30
0.0
 10
-4.2564400000000004
 20
0.60899
 30
0.0
 10
-4.2644800000000007
 20
0.6346000000000001
 30
0.0
 10
-4.2802500000000006
 20
0.67461
 30
0.0
 10
-4.3038500000000006
 20
0.7290100000000001
 30
0.0
 10
-4.3038500000000006
 20
0.7290100000000001
 30
0.0
 10
-4.3166500000000001
 20
0.7583200000000001
 30
0.0
 10
-4.3303100000000008
 20
0.7781100000000001
 30
0.0
 10
-4.3448100000000007
 20
0.78817
 30
0.0
 10
-4.3448100000000007
 20
0.78817
 30
0.0
 10
-4.3537000000000008
 20
0.7942
 30
0.0
 10
-4.3691500000000003
 20
0.7971600000000001
 30
0.0
 10
-4.3912700000000005
 20
0.7971600000000001
 30
0.0
 10
-4.3912700000000005
 20
0.7971600000000001
 30
0.0
 10
-4.3912700000000005
 20
0.7971600000000001
 30
0.0
 10
-4.4293700000000005
 20
0.7971600000000001
 30
0.0
 10
-4.4293700000000005
 20
0.7971600000000001
 30
0.0
 10
-4.4293700000000005
 20
0.7971600000000001
 30
0.0
 10
-4.4293700000000005
 20
0.7971600000000001
 30
0.0
 10
-4.4688400000000001
 20
0.60899
 30
0.0
 10
-4.4688400000000001
 20
0.60899
 30
0.0
  0
SPLINE
  5
68
100
AcDbEntity
  8
Plan 1
 62
     7
100
AcDbSpline
210
0.0
220
0.0
230
1.0
 70
     1
 71
     3
 72
    36
 73
    32
 74
     0
 42
0.0000000001
 43
0.0000000001
 40
0.0
 40
0.0
 40
0.0
 40
0.0
 40
0.125
 40
0.125
 40
0.125
 40
0.125
 40
0.25
 40
0.25
 40
0.25
 40
0.25
 40
0.375
 40
0.375
 40
0.375
 40
0.375
 40
0.5
 40
0.5
 40
0.5
 40
0.5
 40
0.625
 40
0.625
 40
0.625
 40
0.625
 40
0.75
 40
0.75
 40
0.75
 40
0.75
 40
0.875
 40
0.875
 40
0.875
 40
0.875
 40
1.0
 40
1.0
 40
1.0
 40
1.0
 10
-4.4151899999999999
 20
0.8654200000000001
 30
0.0
 10
-4.4151899999999999
 20
0.8654200000000001
 30
0.0
 10
-4.3655500000000007
 20
0.8654200000000001
 30
0.0
 10
-4.3655500000000007
 20
0.8654200000000001
 30
0.0
 10
-4.3655500000000007
 20
0.8654200000000001
 30
0.0
 10
-4.3152800000000004
 20
0.8654200000000001
 30
0.0
 10
-4.2819400000000005
 20
0.8683900000000001
 30
0.0
 10
-4.2655400000000006
 20
0.8744200000000001
 30
0.0
 10
-4.2655400000000006
 20
0.8744200000000001
 30
0.0
 10
-4.2491300000000001
 20
0.8803500000000001
 30
0.0
 10
-4.2362200000000003
 20
0.8897700000000001
 30
0.0
 10
-4.2269100000000002
 20
0.9025700000000001
 30
0.0
 10
-4.2269100000000002
 20
0.9025700000000001
 30
0.0
 10
-4.2177000000000007
 20
0.9154800000000001
 30
0.0
 10
-4.2130400000000003
 20
0.9288200000000001
 30
0.0
 10
-4.2130400000000003
 20
0.9428900000000001
 30
0.0
 10
-4.2130400000000003
 20
0.9428900000000001
 30
0.0
 10
-4.2130400000000003
 20
0.9595100000000001
 30
0.0
 10
-4.2197100000000001
 20
0.97189
 30
0.0
 10
-4.2331500000000002
 20
0.9801500000000001
 30
0.0
 10
-4.2331500000000002
 20
0.9801500000000001
 30
0.0
 10
-4.2414100000000001
 20
0.9851200000000001
 30
0.0
 10
-4.25929
 20
0.9875600000000001
 30
0.0
 10
-4.28681
 20
0.9875600000000001
 30
0.0
 10
-4.28681
 20
0.9875600000000001
 30
0.0
 10
-4.28681
 20
0.9875600000000001
 30
0.0
 10
-4.3896800000000002
 20
0.9875600000000001
 30
0.0
 10
-4.3896800000000002
 20
0.9875600000000001
 30
0.0
 10
-4.3896800000000002
 20
0.9875600000000001
 30
0.0
 10
-4.3896800000000002
 20
0.9875600000000001
 30
0.0
 10
-4.4151899999999999
 20
0.8654200000000001
 30
0.0
 10
-4.4151899999999999
 20
0.8654200000000001
 30
0.0
  0
SPLINE
  5
69
100
AcDbEntity
  8
Plan 1
 62
     7
100
AcDbSpline
210
0.0
220
0.0
230
1.0
 70
     1
 71
     3
 72
    56
 73
    52
 74
     0
 42
0.0000000001
 43
0.0000000001
 40
0.0
 40
0.0
 40
0.0
 40
0.0
 40
0.0769230769230769
 40
0.0769230769230769
 40
0.0769230769230769
 40
0.0769230769230769
 40
0.1538461538461539
 40
0.1538461538461539
 40
0.1538461538461539
 40
0.1538461538461539
 40
0.2307692307692308
 40
0.2307692307692308
 40
0.2307692307692308
 40
0.2307692307692308
 40
0.3076923076923077
 40
0.3076923076923077
 40
0.3076923076923077
 40
0.3076923076923077
 40
0.3846153846153846
 40
0.3846153846153846
 40
0.3846153846153846
 40
0.3846153846153846
 40
0.4615384615384616
 40
0.4615384615384616
 40
0.4615384615384616
 40
0.4615384615384616
 40
0.5384615384615386
 40
0.5384615384615386
 40
0.5384615384615386
 40
0.5384615384615386
 40
0.6153846153846154
 40
0.6153846153846154
 40
0.6153846153846154
 40
0.6153846153846154
 40
0.6923076923076923
 40
0.6923076923076923
 40
0.6923076923076923
 40
0.6923076923076923
 40
0.7692307692307692
 40
0.7692307692307692
 40
0.7692307692307692
 40
0.7692307692307692
 40
0.846153846153846
 40
0.846153846153846
 40
0.846153846153846
 40
0.846153846153846
 40
0.9230769230769229
 40
0.9230769230769229
 40
0.9230769230769229
 40
0.9230769230769229
 40
1.0
 40
1.0
 40
1.0
 40
1.0
 10
-3.8443200000000002
 20
0.60899
 30
0.0
 10
-3.8443200000000002
 20
0.60899
 30
0.0
 10
-3.9330000000000003
 20
0.60899
 30
0.0
 10
-3.9330000000000003
 20
0.60899
 30
0.0
 10
-3.9330000000000003
 20
0.60899
 30
0.0
 10
-3.9330000000000003
 20
0.60899
 30
0.0
 10
-3.9494100000000003
 20
0.9888300000000001
 30
0.0
 10
-3.9494100000000003
 20
0.9888300000000001
 30
0.0
 10
-3.9494100000000003
 20
0.9888300000000001
 30
0.0
 10
-3.9494100000000003
 20
0.9888300000000001
 30
0.0
 10
-4.0216900000000004
 20
0.60899
 30
0.0
 10
-4.0216900000000004
 20
0.60899
 30
0.0
 10
-4.0216900000000004
 20
0.60899
 30
0.0
 10
-4.0216900000000004
 20
0.60899
 30
0.0
 10
-4.1060400000000001
 20
0.60899
 30
0.0
 10
-4.1060400000000001
 20
0.60899
 30
0.0
 10
-4.1060400000000001
 20
0.60899
 30
0.0
 10
-4.1060400000000001
 20
0.60899
 30
0.0
 10
-4.0111100000000004
 20
1.0635400000000002
 30
0.0
 10
-4.0111100000000004
 20
1.0635400000000002
 30
0.0
 10
-4.0111100000000004
 20
1.0635400000000002
 30
0.0
 10
-4.0111100000000004
 20
1.0635400000000002
 30
0.0
 10
-3.8778700000000002
 20
1.0635400000000002
 30
0.0
 10
-3.8778700000000002
 20
1.0635400000000002
 30
0.0
 10
-3.8778700000000002
 20
1.0635400000000002
 30
0.0
 10
-3.8778700000000002
 20
1.0635400000000002
 30
0.0
 10
-3.8639000000000001
 20
0.74509
 30
0.0
 10
-3.8639000000000001
 20
0.74509
 30
0.0
 10
-3.8639000000000001
 20
0.74509
 30
0.0
 10
-3.8639000000000001
 20
0.74509
 30
0.0
 10
-3.7088500000000004
 20
1.0635400000000002
 30
0.0
 10
-3.7088500000000004
 20
1.0635400000000002
 30
0.0
 10
-3.7088500000000004
 20
1.0635400000000002
 30
0.0
 10
-3.7088500000000004
 20
1.0635400000000002
 30
0.0
 10
-3.5739100000000001
 20
1.0635400000000002
 30
0.0
 10
-3.5739100000000001
 20
1.0635400000000002
 30
0.0
 10
-3.5739100000000001
 20
1.0635400000000002
 30
0.0
 10
-3.5739100000000001
 20
1.0635400000000002
 30
0.0
 10
-3.6691600000000002
 20
0.60899
 30
0.0
 10
-3.6691600000000002
 20
0.60899
 30
0.0
 10
-3.6691600000000002
 20
0.60899
 30
0.0
 10
-3.6691600000000002
 20
0.60899
 30
0.0
 10
-3.7544600000000004
 20
0.60899
 30
0.0
 10
-3.7544600000000004
 20
0.60899
 30
0.0
 10
-3.7544600000000004
 20
0.60899
 30
0.0
 10
-3.7544600000000004
 20
0.60899
 30
0.0
 10
-3.6648200000000002
 20
0.9860700000000001
 30
0.0
 10
-3.6648200000000002
 20
0.9860700000000001
 30
0.0
 10
-3.6648200000000002
 20
0.9860700000000001
 30
0.0
 10
-3.6648200000000002
 20
0.9860700000000001
 30
0.0
 10
-3.8443200000000002
 20
0.60899
 30
0.0
 10
-3.8443200000000002
 20
0.60899
 30
0.0
  0
SPLINE
  5
6A
100
AcDbEntity
  8
Plan 1
 62
     7
100
AcDbSpline
210
0.0
220
0.0
230
1.0
 70
     1
 71
     3
 72
    84
 73
    80
 74
     0
 42
0.0000000001
 43
0.0000000001
 40
0.0
 40
0.0
 40
0.0
 40
0.0
 40
0.05
 40
0.05
 40
0.05
 40
0.05
 40
0.1
 40
0.1
 40
0.1
 40
0.1
 40
0.15
 40
0.15
 40
0.15
 40
0.15
 40
0.2
 40
0.2
 40
0.2
 40
0.2
 40
0.25
 40
0.25
 40
0.25
 40
0.25
 40
0.3
 40
0.3
 40
0.3
 40
0.3
 40
0.35
 40
0.35
 40
0.35
 40
0.35
 40
0.4
 40
0.4
 40
0.4
 40
0.4
 40
0.45
 40
0.45
 40
0.45
 40
0.45
 40
0.4999999999999999
 40
0.4999999999999999
 40
0.4999999999999999
 40
0.4999999999999999
 40
0.5499999999999999
 40
0.5499999999999999
 40
0.5499999999999999
 40
0.5499999999999999
 40
0.6
 40
0.6
 40
0.6
 40
0.6
 40
0.65
 40
0.65
 40
0.65
 40
0.65
 40
0.7000000000000001
 40
0.7000000000000001
 40
0.7000000000000001
 40
0.7000000000000001
 40
0.7500000000000001
 40
0.7500000000000001
 40
0.7500000000000001
 40
0.7500000000000001
 40
0.8000000000000002
 40
0.8000000000000002
 40
0.8000000000000002
 40
0.8000000000000002
 40
0.8500000000000002
 40
0.8500000000000002
 40
0.8500000000000002
 40
0.8500000000000002
 40
0.9000000000000002
 40
0.9000000000000002
 40
0.9000000000000002
 40
0.9000000000000002
 40
0.9500000000000003
 40
0.9500000000000003
 40
0.9500000000000003
 40
0.9500000000000003
 40
1.0
 40
1.0
 40
1.0
 40
1.0
 10
-3.4815100000000001
 20
1.0635400000000002
 30
0.0
 10
-3.4815100000000001
 20
1.0635400000000002
 30
0.0
 10
-3.3882800000000004
 20
1.0635400000000002
 30
0.0
 10
-3.3882800000000004
 20
1.0635400000000002
 30
0.0
 10
-3.3882800000000004
 20
1.0635400000000002
 30
0.0
 10
-3.3882800000000004
 20
1.0635400000000002
 30
0.0
 10
-3.4397100000000003
 20
0.81674
 30
0.0
 10
-3.4397100000000003
 20
0.81674
 30
0.0
 10
-3.4397100000000003
 20
0.81674
 30
0.0
 10
-3.4397100000000003
 20
0.81674
 30
0.0
 10
-3.4524100000000004
 20
0.7559900000000001
 30
0.0
 10
-3.4524100000000004
 20
0.7559900000000001
 30
0.0
 10
-3.4524100000000004
 20
0.7559900000000001
 30
0.0
 10
-3.4532600000000002
 20
0.7508100000000001
 30
0.0
 10
-3.4536800000000003
 20
0.7459400000000001
 30
0.0
 10
-3.4536800000000003
 20
0.7413900000000001
 30
0.0
 10
-3.4536800000000003
 20
0.7413900000000001
 30
0.0
 10
-3.4536800000000003
 20
0.7234
 30
0.0
 10
-3.4471200000000004
 20
0.7085800000000001
 30
0.0
 10
-3.4340000000000002
 20
0.69694
 30
0.0
 10
-3.4340000000000002
 20
0.69694
 30
0.0
 10
-3.4208700000000003
 20
0.6851900000000001
 30
0.0
 10
-3.4018200000000003
 20
0.67937
 30
0.0
 10
-3.3767400000000003
 20
0.67937
 30
0.0
 10
-3.3767400000000003
 20
0.67937
 30
0.0
 10
-3.3542000000000001
 20
0.67937
 30
0.0
 10
-3.3356800000000004
 20
0.6836000000000001
 30
0.0
 10
-3.3209700000000004
 20
0.6920700000000001
 30
0.0
 10
-3.3209700000000004
 20
0.6920700000000001
 30
0.0
 10
-3.3062500000000004
 20
0.7005400000000001
 30
0.0
 10
-3.2949300000000004
 20
0.71313
 30
0.0
 10
-3.2868900000000001
 20
0.7299600000000001
 30
0.0
 10
-3.2868900000000001
 20
0.7299600000000001
 30
0.0
 10
-3.2787400000000004
 20
0.74668
 30
0.0
 10
-3.2705900000000003
 20
0.7750400000000001
 30
0.0
 10
-3.2623300000000004
 20
0.81515
 30
0.0
 10
-3.2623300000000004
 20
0.81515
 30
0.0
 10
-3.2623300000000004
 20
0.81515
 30
0.0
 10
-3.2102600000000003
 20
1.0635400000000002
 30
0.0
 10
-3.2102600000000003
 20
1.0635400000000002
 30
0.0
 10
-3.2102600000000003
 20
1.0635400000000002
 30
0.0
 10
-3.2102600000000003
 20
1.0635400000000002
 30
0.0
 10
-3.1169200000000004
 20
1.0635400000000002
 30
0.0
 10
-3.1169200000000004
 20
1.0635400000000002
 30
0.0
 10
-3.1169200000000004
 20
1.0635400000000002
 30
0.0
 10
-3.1169200000000004
 20
1.0635400000000002
 30
0.0
 10
-3.1686700000000001
 20
0.8148400000000001
 30
0.0
 10
-3.1686700000000001
 20
0.8148400000000001
 30
0.0
 10
-3.1686700000000001
 20
0.8148400000000001
 30
0.0
 10
-3.1796800000000003
 20
0.7625500000000001
 30
0.0
 10
-3.1922700000000002
 20
0.72255
 30
0.0
 10
-3.2065600000000001
 20
0.6949300000000001
 30
0.0
 10
-3.2065600000000001
 20
0.6949300000000001
 30
0.0
 10
-3.2208500000000004
 20
0.6672
 30
0.0
 10
-3.2424400000000002
 20
0.64466
 30
0.0
 10
-3.2713300000000003
 20
0.6273000000000001
 30
0.0
 10
-3.2713300000000003
 20
0.6273000000000001
 30
0.0
 10
-3.3003300000000002
 20
0.60994
 30
0.0
 10
-3.3368400000000005
 20
0.60126
 30
0.0
 10
-3.3810800000000003
 20
0.60126
 30
0.0
 10
-3.3810800000000003
 20
0.60126
 30
0.0
 10
-3.4340000000000002
 20
0.60126
 30
0.0
 10
-3.4745300000000001
 20
0.6141800000000001
 30
0.0
 10
-3.5026800000000002
 20
0.6401100000000001
 30
0.0
 10
-3.5026800000000002
 20
0.6401100000000001
 30
0.0
 10
-3.5307300000000001
 20
0.6661400000000001
 30
0.0
 10
-3.5448000000000004
 20
0.6993700000000001
 30
0.0
 10
-3.5448000000000004
 20
0.7401200000000001
 30
0.0
 10
-3.5448000000000004
 20
0.7401200000000001
 30
0.0
 10
-3.5448000000000004
 20
0.74858
 30
0.0
 10
-3.5440600000000004
 20
0.7577900000000001
 30
0.0
 10
-3.5426900000000003
 20
0.7677400000000001
 30
0.0
 10
-3.5426900000000003
 20
0.7677400000000001
 30
0.0
 10
-3.5418400000000001
 20
0.77441
 30
0.0
 10
-3.5382400000000005
 20
0.7931400000000001
 30
0.0
 10
-3.5317900000000004
 20
0.8241500000000001
 30
0.0
 10
-3.5317900000000004
 20
0.8241500000000001
 30
0.0
 10
-3.5317900000000004
 20
0.8241500000000001
 30
0.0
 10
-3.4815100000000001
 20
1.0635400000000002
 30
0.0
 10
-3.4815100000000001
 20
1.0635400000000002
 30
0.0
  0
SPLINE
  5
6B
100
AcDbEntity
  8
Plan 1
 62
     7
100
AcDbSpline
210
0.0
220
0.0
230
1.0
 70
     1
 71
     3
 72
    28
 73
    24
 74
     0
 42
0.0000000001
 43
0.0000000001
 40
0.0
 40
0.0
 40
0.0
 40
0.0
 40
0.1666666666666667
 40
0.1666666666666667
 40
0.1666666666666667
 40
0.1666666666666667
 40
0.3333333333333333
 40
0.3333333333333333
 40
0.3333333333333333
 40
0.3333333333333333
 40
0.5
 40
0.5
 40
0.5
 40
0.5
 40
0.6666666666666666
 40
0.6666666666666666
 40
0.6666666666666666
 40
0.6666666666666666
 40
0.8333333333333333
 40
0.8333333333333333
 40
0.8333333333333333
 40
0.8333333333333333
 40
1.0
 40
1.0
 40
1.0
 40
1.0
 10
-3.1156400000000004
 20
0.60899
 30
0.0
 10
-3.1156400000000004
 20
0.60899
 30
0.0
 10
-3.0205000000000002
 20
1.0635400000000002
 30
0.0
 10
-3.0205000000000002
 20
1.0635400000000002
 30
0.0
 10
-3.0205000000000002
 20
1.0635400000000002
 30
0.0
 10
-3.0205000000000002
 20
1.0635400000000002
 30
0.0
 10
-2.9271600000000002
 20
1.0635400000000002
 30
0.0
 10
-2.9271600000000002
 20
1.0635400000000002
 30
0.0
 10
-2.9271600000000002
 20
1.0635400000000002
 30
0.0
 10
-2.9271600000000002
 20
1.0635400000000002
 30
0.0
 10
-3.0062100000000003
 20
0.68498
 30
0.0
 10
-3.0062100000000003
 20
0.68498
 30
0.0
 10
-3.0062100000000003
 20
0.68498
 30
0.0
 10
-3.0062100000000003
 20
0.68498
 30
0.0
 10
-2.7749700000000002
 20
0.68498
 30
0.0
 10
-2.7749700000000002
 20
0.68498
 30
0.0
 10
-2.7749700000000002
 20
0.68498
 30
0.0
 10
-2.7749700000000002
 20
0.68498
 30
0.0
 10
-2.7907400000000004
 20
0.60899
 30
0.0
 10
-2.7907400000000004
 20
0.60899
 30
0.0
 10
-2.7907400000000004
 20
0.60899
 30
0.0
 10
-2.7907400000000004
 20
0.60899
 30
0.0
 10
-3.1156400000000004
 20
0.60899
 30
0.0
 10
-3.1156400000000004
 20
0.60899
 30
0.0
  0
SPLINE
  5
6C
100
AcDbEntity
  8
Plan 1
 62
     7
100
AcDbSpline
210
0.0
220
0.0
230
1.0
 70
     1
 71
     3
 72
    36
 73
    32
 74
     0
 42
0.0000000001
 43
0.0000000001
 40
0.0
 40
0.0
 40
0.0
 40
0.0
 40
0.125
 40
0.125
 40
0.125
 40
0.125
 40
0.25
 40
0.25
 40
0.25
 40
0.25
 40
0.375
 40
0.375
 40
0.375
 40
0.375
 40
0.5
 40
0.5
 40
0.5
 40
0.5
 40
0.625
 40
0.625
 40
0.625
 40
0.625
 40
0.75
 40
0.75
 40
0.75
 40
0.75
 40
0.875
 40
0.875
 40
0.875
 40
0.875
 40
1.0
 40
1.0
 40
1.0
 40
1.0
 10
-2.4326000000000003
 20
0.70943
 30
0.0
 10
-2.4326000000000003
 20
0.70943
 30
0.0
 10
-2.6128300000000002
 20
0.70943
 30
0.0
 10
-2.6128300000000002
 20
0.70943
 30
0.0
 10
-2.6128300000000002
 20
0.70943
 30
0.0
 10
-2.6128300000000002
 20
0.70943
 30
0.0
 10
-2.6673300000000002
 20
0.60899
 30
0.0
 10
-2.6673300000000002
 20
0.60899
 30
0.0
 10
-2.6673300000000002
 20
0.60899
 30
0.0
 10
-2.6673300000000002
 20
0.60899
 30
0.0
 10
-2.7634300000000001
 20
0.60899
 30
0.0
 10
-2.7634300000000001
 20
0.60899
 30
0.0
 10
-2.7634300000000001
 20
0.60899
 30
0.0
 10
-2.7634300000000001
 20
0.60899
 30
0.0
 10
-2.5064700000000002
 20
1.0635400000000002
 30
0.0
 10
-2.5064700000000002
 20
1.0635400000000002
 30
0.0
 10
-2.5064700000000002
 20
1.0635400000000002
 30
0.0
 10
-2.5064700000000002
 20
1.0635400000000002
 30
0.0
 10
-2.4025400000000001
 20
1.0635400000000002
 30
0.0
 10
-2.4025400000000001
 20
1.0635400000000002
 30
0.0
 10
-2.4025400000000001
 20
1.0635400000000002
 30
0.0
 10
-2.4025400000000001
 20
1.0635400000000002
 30
0.0
 10
-2.32877
 20
0.60899
 30
0.0
 10
-2.32877
 20
0.60899
 30
0.0
 10
-2.32877
 20
0.60899
 30
0.0
 10
-2.32877
 20
0.60899
 30
0.0
 10
-2.4174600000000002
 20
0.60899
 30
0.0
 10
-2.4174600000000002
 20
0.60899
 30
0.0
 10
-2.4174600000000002
 20
0.60899
 30
0.0
 10
-2.4174600000000002
 20
0.60899
 30
0.0
 10
-2.4326000000000003
 20
0.70943
 30
0.0
 10
-2.4326000000000003
 20
0.70943
 30
0.0
  0
SPLINE
  5
6D
100
AcDbEntity
  8
Plan 1
 62
     7
100
AcDbSpline
210
0.0
220
0.0
230
1.0
 70
     1
 71
     3
 72
    16
 73
    12
 74
     0
 42
0.0000000001
 43
0.0000000001
 40
0.0
 40
0.0
 40
0.0
 40
0.0
 40
0.3333333333333333
 40
0.3333333333333333
 40
0.3333333333333333
 40
0.3333333333333333
 40
0.6666666666666666
 40
0.6666666666666666
 40
0.6666666666666666
 40
0.6666666666666666
 40
1.0
 40
1.0
 40
1.0
 40
1.0
 10
-2.4441300000000004
 20
0.7851
 30
0.0
 10
-2.4441300000000004
 20
0.7851
 30
0.0
 10
-2.4704800000000002
 20
0.9680800000000001
 30
0.0
 10
-2.4704800000000002
 20
0.9680800000000001
 30
0.0
 10
-2.4704800000000002
 20
0.9680800000000001
 30
0.0
 10
-2.4704800000000002
 20
0.9680800000000001
 30
0.0
 10
-2.5802300000000002
 20
0.7851
 30
0.0
 10
-2.5802300000000002
 20
0.7851
 30
0.0
 10
-2.5802300000000002
 20
0.7851
 30
0.0
 10
-2.5802300000000002
 20
0.7851
 30
0.0
 10
-2.4441300000000004
 20
0.7851
 30
0.0
 10
-2.4441300000000004
 20
0.7851
 30
0.0
  0
SPLINE
  5
6E
100
AcDbEntity
  8
Plan 1
 62
     7
100
AcDbSpline
210
0.0
220
0.0
230
1.0
 70
     1
 71
     3
 72
    36
 73
    32
 74
     0
 42
0.0000000001
 43
0.0000000001
 40
0.0
 40
0.0
 40
0.0
 40
0.0
 40
0.125
 40
0.125
 40
0.125
 40
0.125
 40
0.25
 40
0.25
 40
0.25
 40
0.25
 40
0.375
 40
0.375
 40
0.375
 40
0.375
 40
0.5
 40
0.5
 40
0.5
 40
0.5
 40
0.625
 40
0.625
 40
0.625
 40
0.625
 40
0.75
 40
0.75
 40
0.75
 40
0.75
 40
0.875
 40
0.875
 40
0.875
 40
0.875
 40
1.0
 40
1.0
 40
1.0
 40
1.0
 10
-2.0695900000000003
 20
0.8700800000000001
 30
0.0
 10
-2.0695900000000003
 20
0.8700800000000001
 30
0.0
 10
-2.0528600000000004
 20
0.9494600000000001
 30
0.0
 10
-2.0528600000000004
 20
0.9494600000000001
 30
0.0
 10
-2.0528600000000004
 20
0.9494600000000001
 30
0.0
 10
-1.9761400000000002
 20
0.9829000000000001
 30
0.0
 10
-1.9168700000000001
 20
1.0218500000000001
 30
0.0
 10
-1.8748500000000001
 20
1.0663
 30
0.0
 10
-1.8748500000000001
 20
1.0663
 30
0.0
 10
-1.8748500000000001
 20
1.0663
 30
0.0
 10
-1.8206700000000002
 20
1.0663
 30
0.0
 10
-1.8206700000000002
 20
1.0663
 30
0.0
 10
-1.8206700000000002
 20
1.0663
 30
0.0
 10
-1.8206700000000002
 20
1.0663
 30
0.0
 10
-1.9164500000000002
 20
0.60899
 30
0.0
 10
-1.9164500000000002
 20
0.60899
 30
0.0
 10
-1.9164500000000002
 20
0.60899
 30
0.0
 10
-1.9164500000000002
 20
0.60899
 30
0.0
 10
-2.0059800000000001
 20
0.60899
 30
0.0
 10
-2.0059800000000001
 20
0.60899
 30
0.0
 10
-2.0059800000000001
 20
0.60899
 30
0.0
 10
-2.0059800000000001
 20
0.60899
 30
0.0
 10
-1.9399400000000002
 20
0.9240600000000001
 30
0.0
 10
-1.9399400000000002
 20
0.9240600000000001
 30
0.0
 10
-1.9399400000000002
 20
0.9240600000000001
 30
0.0
 10
-1.9585700000000001
 20
0.9119900000000001
 30
0.0
 10
-1.9800500000000001
 20
0.9010900000000001
 30
0.0
 10
-2.0042900000000001
 20
0.89114
 30
0.0
 10
-2.0042900000000001
 20
0.89114
 30
0.0
 10
-2.0286300000000002
 20
0.88119
 30
0.0
 10
-2.0503200000000001
 20
0.87421
 30
0.0
 10
-2.0695900000000003
 20
0.8700800000000001
 30
0.0
  0
SPLINE
  5
6F
100
AcDbEntity
  8
Plan 1
 62
     7
100
AcDbSpline
210
0.0
220
0.0
230
1.0
 70
     1
 71
     3
 72
    72
 73
    68
 74
     0
 42
0.0000000001
 43
0.0000000001
 40
0.0
 40
0.0
 40
0.0
 40
0.0
 40
0.0588235294117647
 40
0.0588235294117647
 40
0.0588235294117647
 40
0.0588235294117647
 40
0.1176470588235294
 40
0.1176470588235294
 40
0.1176470588235294
 40
0.1176470588235294
 40
0.1764705882352941
 40
0.1764705882352941
 40
0.1764705882352941
 40
0.1764705882352941
 40
0.2352941176470588
 40
0.2352941176470588
 40
0.2352941176470588
 40
0.2352941176470588
 40
0.2941176470588235
 40
0.2941176470588235
 40
0.2941176470588235
 40
0.2941176470588235
 40
0.3529411764705883
 40
0.3529411764705883
 40
0.3529411764705883
 40
0.3529411764705883
 40
0.411764705882353
 40
0.411764705882353
 40
0.411764705882353
 40
0.411764705882353
 40
0.4705882352941177
 40
0.4705882352941177
 40
0.4705882352941177
 40
0.4705882352941177
 40
0.5294117647058824
 40
0.5294117647058824
 40
0.5294117647058824
 40
0.5294117647058824
 40
0.5882352941176471
 40
0.5882352941176471
 40
0.5882352941176471
 40
0.5882352941176471
 40
0.6470588235294118
 40
0.6470588235294118
 40
0.6470588235294118
 40
0.6470588235294118
 40
0.7058823529411765
 40
0.7058823529411765
 40
0.7058823529411765
 40
0.7058823529411765
 40
0.7647058823529412
 40
0.7647058823529412
 40
0.7647058823529412
 40
0.7647058823529412
 40
0.823529411764706
 40
0.823529411764706
 40
0.823529411764706
 40
0.823529411764706
 40
0.8823529411764707
 40
0.8823529411764707
 40
0.8823529411764707
 40
0.8823529411764707
 40
0.9411764705882354
 40
0.9411764705882354
 40
0.9411764705882354
 40
0.9411764705882354
 40
1.0
 40
1.0
 40
1.0
 40
1.0
 10
-1.6553500000000001
 20
0.8591800000000001
 30
0.0
 10
-1.6712300000000002
 20
0.8697600000000001
 30
0.0
 10
-1.6831800000000001
 20
0.8819300000000001
 30
0.0
 10
-1.6911200000000002
 20
0.8956900000000001
 30
0.0
 10
-1.6911200000000002
 20
0.8956900000000001
 30
0.0
 10
-1.6991700000000001
 20
0.9093500000000001
 30
0.0
 10
-1.7030800000000001
 20
0.92459
 30
0.0
 10
-1.7030800000000001
 20
0.9414100000000001
 30
0.0
 10
-1.7030800000000001
 20
0.9414100000000001
 30
0.0
 10
-1.7030800000000001
 20
0.9607800000000001
 30
0.0
 10
-1.69747
 20
0.9805700000000001
 30
0.0
 10
-1.6863600000000001
 20
1.0005700000000002
 30
0.0
 10
-1.6863600000000001
 20
1.0005700000000002
 30
0.0
 10
-1.6751400000000001
 20
1.02068
 30
0.0
 10
-1.6585300000000001
 20
1.0364500000000001
 30
0.0
 10
-1.6363000000000001
 20
1.04799
 30
0.0
 10
-1.6363000000000001
 20
1.04799
 30
0.0
 10
-1.6140800000000002
 20
1.0596300000000001
 30
0.0
 10
-1.5888900000000001
 20
1.06545
 30
0.0
 10
-1.5607400000000002
 20
1.06545
 30
0.0
 10
-1.5607400000000002
 20
1.06545
 30
0.0
 10
-1.5203100000000001
 20
1.06545
 30
0.0
 10
-1.4886600000000001
 20
1.0548700000000002
 30
0.0
 10
-1.46591
 20
1.0338100000000001
 30
0.0
 10
-1.46591
 20
1.0338100000000001
 30
0.0
 10
-1.4431500000000002
 20
1.01264
 30
0.0
 10
-1.4318300000000002
 20
0.9860700000000001
 30
0.0
 10
-1.4318300000000002
 20
0.9538000000000001
 30
0.0
 10
-1.4318300000000002
 20
0.9538000000000001
 30
0.0
 10
-1.4318300000000002
 20
0.9310400000000001
 30
0.0
 10
-1.43818
 20
0.9112500000000001
 30
0.0
 10
-1.4509900000000002
 20
0.8944200000000001
 30
0.0
 10
-1.4509900000000002
 20
0.8944200000000001
 30
0.0
 10
-1.4637900000000001
 20
0.8776000000000001
 30
0.0
 10
-1.4830500000000002
 20
0.8635200000000001
 30
0.0
 10
-1.5086700000000002
 20
0.8524100000000001
 30
0.0
 10
-1.5086700000000002
 20
0.8524100000000001
 30
0.0
 10
-1.49004
 20
0.8409800000000001
 30
0.0
 10
-1.4761700000000002
 20
0.8272200000000001
 30
0.0
 10
-1.4669700000000001
 20
0.81103
 30
0.0
 10
-1.4669700000000001
 20
0.81103
 30
0.0
 10
-1.4577600000000002
 20
0.7947300000000001
 30
0.0
 10
-1.4532100000000001
 20
0.7762100000000001
 30
0.0
 10
-1.4532100000000001
 20
0.75536
 30
0.0
 10
-1.4532100000000001
 20
0.75536
 30
0.0
 10
-1.4532100000000001
 20
0.7210700000000001
 30
0.0
 10
-1.46411
 20
0.6898500000000001
 30
0.0
 10
-1.4860200000000001
 20
0.6617000000000001
 30
0.0
 10
-1.4860200000000001
 20
0.6617000000000001
 30
0.0
 10
-1.5178700000000001
 20
0.6211600000000001
 30
0.0
 10
-1.5613700000000001
 20
0.6009500000000001
 30
0.0
 10
-1.6166200000000002
 20
0.6009500000000001
 30
0.0
 10
-1.6166200000000002
 20
0.6009500000000001
 30
0.0
 10
-1.65673
 20
0.6009500000000001
 30
0.0
 10
-1.6889000000000001
 20
0.6128
 30
0.0
 10
-1.7133500000000002
 20
0.6364000000000001
 30
0.0
 10
-1.7133500000000002
 20
0.6364000000000001
 30
0.0
 10
-1.7376900000000002
 20
0.6601100000000001
 30
0.0
 10
-1.7498600000000002
 20
0.6902700000000001
 30
0.0
 10
-1.7498600000000002
 20
0.7267800000000001
 30
0.0
 10
-1.7498600000000002
 20
0.7267800000000001
 30
0.0
 10
-1.7498600000000002
 20
0.7571600000000001
 30
0.0
 10
-1.7413900000000002
 20
0.7843600000000001
 30
0.0
 10
-1.7244600000000001
 20
0.8083800000000001
 30
0.0
 10
-1.7244600000000001
 20
0.8083800000000001
 30
0.0
 10
-1.7075300000000002
 20
0.8323
 30
0.0
 10
-1.6844500000000002
 20
0.8493400000000001
 30
0.0
 10
-1.6553500000000001
 20
0.8591800000000001
 30
0.0
  0
SPLINE
  5
70
100
AcDbEntity
  8
Plan 1
 62
     7
100
AcDbSpline
210
0.0
220
0.0
230
1.0
 70
     1
 71
     3
 72
    36
 73
    32
 74
     0
 42
0.0000000001
 43
0.0000000001
 40
0.0
 40
0.0
 40
0.0
 40
0.0
 40
0.125
 40
0.125
 40
0.125
 40
0.125
 40
0.25
 40
0.25
 40
0.25
 40
0.25
 40
0.375
 40
0.375
 40
0.375
 40
0.375
 40
0.5
 40
0.5
 40
0.5
 40
0.5
 40
0.625
 40
0.625
 40
0.625
 40
0.625
 40
0.75
 40
0.75
 40
0.75
 40
0.75
 40
0.875
 40
0.875
 40
0.875
 40
0.875
 40
1.0
 40
1.0
 40
1.0
 40
1.0
 10
-1.6215900000000001
 20
0.93549
 30
0.0
 10
-1.6215900000000001
 20
0.9212000000000001
 30
0.0
 10
-1.6172500000000001
 20
0.90966
 30
0.0
 10
-1.6085700000000001
 20
0.9008800000000001
 30
0.0
 10
-1.6085700000000001
 20
0.9008800000000001
 30
0.0
 10
-1.59989
 20
0.8920900000000001
 30
0.0
 10
-1.58857
 20
0.8877600000000001
 30
0.0
 10
-1.5747100000000001
 20
0.8877600000000001
 30
0.0
 10
-1.5747100000000001
 20
0.8877600000000001
 30
0.0
 10
-1.5588300000000002
 20
0.8877600000000001
 30
0.0
 10
-1.5447500000000001
 20
0.8937900000000001
 30
0.0
 10
-1.5326900000000001
 20
0.90585
 30
0.0
 10
-1.5326900000000001
 20
0.90585
 30
0.0
 10
-1.5206200000000001
 20
0.9179200000000001
 30
0.0
 10
-1.5145900000000001
 20
0.9321
 30
0.0
 10
-1.5145900000000001
 20
0.9481900000000001
 30
0.0
 10
-1.5145900000000001
 20
0.9481900000000001
 30
0.0
 10
-1.5145900000000001
 20
0.9629000000000001
 30
0.0
 10
-1.5190400000000002
 20
0.9747500000000001
 30
0.0
 10
-1.5279300000000002
 20
0.9838500000000001
 30
0.0
 10
-1.5279300000000002
 20
0.9838500000000001
 30
0.0
 10
-1.5368200000000001
 20
0.9929500000000001
 30
0.0
 10
-1.5481400000000001
 20
0.9975000000000001
 30
0.0
 10
-1.5620100000000001
 20
0.9975000000000001
 30
0.0
 10
-1.5620100000000001
 20
0.9975000000000001
 30
0.0
 10
-1.5783
 20
0.9975000000000001
 30
0.0
 10
-1.5923800000000001
 20
0.9914700000000001
 30
0.0
 10
-1.6040200000000002
 20
0.9795100000000001
 30
0.0
 10
-1.6040200000000002
 20
0.9795100000000001
 30
0.0
 10
-1.6156600000000001
 20
0.9675500000000001
 30
0.0
 10
-1.6215900000000001
 20
0.9528400000000001
 30
0.0
 10
-1.6215900000000001
 20
0.93549
 30
0.0
  0
SPLINE
  5
71
100
AcDbEntity
  8
Plan 1
 62
     7
100
AcDbSpline
210
0.0
220
0.0
230
1.0
 70
     1
 71
     3
 72
    36
 73
    32
 74
     0
 42
0.0000000001
 43
0.0000000001
 40
0.0
 40
0.0
 40
0.0
 40
0.0
 40
0.125
 40
0.125
 40
0.125
 40
0.125
 40
0.25
 40
0.25
 40
0.25
 40
0.25
 40
0.375
 40
0.375
 40
0.375
 40
0.375
 40
0.5
 40
0.5
 40
0.5
 40
0.5
 40
0.625
 40
0.625
 40
0.625
 40
0.625
 40
0.75
 40
0.75
 40
0.75
 40
0.75
 40
0.875
 40
0.875
 40
0.875
 40
0.875
 40
1.0
 40
1.0
 40
1.0
 40
1.0
 10
-1.6612800000000001
 20
0.7253000000000001
 30
0.0
 10
-1.6612800000000001
 20
0.7082600000000001
 30
0.0
 10
-1.6566200000000002
 20
0.69503
 30
0.0
 10
-1.6473100000000001
 20
0.6853
 30
0.0
 10
-1.6473100000000001
 20
0.6853
 30
0.0
 10
-1.6379900000000001
 20
0.6755600000000001
 30
0.0
 10
-1.6259300000000001
 20
0.67069
 30
0.0
 10
-1.6110100000000001
 20
0.67069
 30
0.0
 10
-1.6110100000000001
 20
0.67069
 30
0.0
 10
-1.5880400000000001
 20
0.67069
 30
0.0
 10
-1.57037
 20
0.6808500000000001
 30
0.0
 10
-1.5578800000000002
 20
0.7010700000000001
 30
0.0
 10
-1.5578800000000002
 20
0.7010700000000001
 30
0.0
 10
-1.5452800000000002
 20
0.7213900000000001
 30
0.0
 10
-1.5390400000000002
 20
0.7434000000000001
 30
0.0
 10
-1.5390400000000002
 20
0.7671100000000001
 30
0.0
 10
-1.5390400000000002
 20
0.7671100000000001
 30
0.0
 10
-1.5390400000000002
 20
0.7824500000000001
 30
0.0
 10
-1.5439100000000001
 20
0.7949400000000001
 30
0.0
 10
-1.5535400000000001
 20
0.8047800000000001
 30
0.0
 10
-1.5535400000000001
 20
0.8047800000000001
 30
0.0
 10
-1.5630600000000001
 20
0.8146200000000001
 30
0.0
 10
-1.5753400000000002
 20
0.8194900000000001
 30
0.0
 10
-1.5902600000000002
 20
0.8194900000000001
 30
0.0
 10
-1.5902600000000002
 20
0.8194900000000001
 30
0.0
 10
-1.6087800000000001
 20
0.8194900000000001
 30
0.0
 10
-1.6252900000000001
 20
0.8109200000000001
 30
0.0
 10
-1.6396900000000001
 20
0.79378
 30
0.0
 10
-1.6396900000000001
 20
0.79378
 30
0.0
 10
-1.6540800000000002
 20
0.77663
 30
0.0
 10
-1.6612800000000001
 20
0.7537700000000001
 30
0.0
 10
-1.6612800000000001
 20
0.7253000000000001
 30
0.0
  0
SPLINE
  5
72
100
AcDbEntity
  8
Plan 1
 62
     7
100
AcDbSpline
210
0.0
220
0.0
230
1.0
 70
     1
 71
     3
 72
    84
 73
    80
 74
     0
 42
0.0000000001
 43
0.0000000001
 40
0.0
 40
0.0
 40
0.0
 40
0.0
 40
0.05
 40
0.05
 40
0.05
 40
0.05
 40
0.1
 40
0.1
 40
0.1
 40
0.1
 40
0.15
 40
0.15
 40
0.15
 40
0.15
 40
0.2
 40
0.2
 40
0.2
 40
0.2
 40
0.25
 40
0.25
 40
0.25
 40
0.25
 40
0.3
 40
0.3
 40
0.3
 40
0.3
 40
0.35
 40
0.35
 40
0.35
 40
0.35
 40
0.4
 40
0.4
 40
0.4
 40
0.4
 40
0.45
 40
0.45
 40
0.45
 40
0.45
 40
0.4999999999999999
 40
0.4999999999999999
 40
0.4999999999999999
 40
0.4999999999999999
 40
0.5499999999999999
 40
0.5499999999999999
 40
0.5499999999999999
 40
0.5499999999999999
 40
0.6
 40
0.6
 40
0.6
 40
0.6
 40
0.65
 40
0.65
 40
0.65
 40
0.65
 40
0.7000000000000001
 40
0.7000000000000001
 40
0.7000000000000001
 40
0.7000000000000001
 40
0.7500000000000001
 40
0.7500000000000001
 40
0.7500000000000001
 40
0.7500000000000001
 40
0.8000000000000002
 40
0.8000000000000002
 40
0.8000000000000002
 40
0.8000000000000002
 40
0.8500000000000002
 40
0.8500000000000002
 40
0.8500000000000002
 40
0.8500000000000002
 40
0.9000000000000002
 40
0.9000000000000002
 40
0.9000000000000002
 40
0.9000000000000002
 40
0.9500000000000003
 40
0.9500000000000003
 40
0.9500000000000003
 40
0.9500000000000003
 40
1.0
 40
1.0
 40
1.0
 40
1.0
 10
-0.9069
 20
0.77271
 30
0.0
 10
-0.9069
 20
0.77271
 30
0.0
 10
-0.8126000000000001
 20
0.7584300000000001
 30
0.0
 10
-0.8126000000000001
 20
0.7584300000000001
 30
0.0
 10
-0.8126000000000001
 20
0.7584300000000001
 30
0.0
 10
-0.83101
 20
0.7074200000000001
 30
0.0
 10
-0.8586400000000001
 20
0.6683600000000001
 30
0.0
 10
-0.89536
 20
0.6413800000000001
 30
0.0
 10
-0.89536
 20
0.6413800000000001
 30
0.0
 10
-0.9321900000000001
 20
0.6143900000000001
 30
0.0
 10
-0.9752700000000001
 20
0.6009500000000001
 30
0.0
 10
-1.0246900000000001
 20
0.6009500000000001
 30
0.0
 10
-1.0246900000000001
 20
0.6009500000000001
 30
0.0
 10
-1.0802500000000002
 20
0.6009500000000001
 30
0.0
 10
-1.12375
 20
0.6176700000000001
 30
0.0
 10
-1.1550800000000001
 20
0.6511100000000001
 30
0.0
 10
-1.1550800000000001
 20
0.6511100000000001
 30
0.0
 10
-1.1864000000000001
 20
0.6846600000000001
 30
0.0
 10
-1.2020700000000002
 20
0.7332400000000001
 30
0.0
 10
-1.2020700000000002
 20
0.7968400000000001
 30
0.0
 10
-1.2020700000000002
 20
0.7968400000000001
 30
0.0
 10
-1.2020700000000002
 20
0.8486
 30
0.0
 10
-1.1915900000000001
 20
0.8958
 30
0.0
 10
-1.1705300000000001
 20
0.9387700000000001
 30
0.0
 10
-1.1705300000000001
 20
0.9387700000000001
 30
0.0
 10
-1.1495700000000002
 20
0.9816300000000001
 30
0.0
 10
-1.1204700000000001
 20
1.01444
 30
0.0
 10
-1.0833200000000001
 20
1.0371900000000001
 30
0.0
 10
-1.0833200000000001
 20
1.0371900000000001
 30
0.0
 10
-1.0460700000000001
 20
1.0599500000000002
 30
0.0
 10
-1.00553
 20
1.0712700000000002
 30
0.0
 10
-0.9617200000000001
 20
1.0712700000000002
 30
0.0
 10
-0.9617200000000001
 20
1.0712700000000002
 30
0.0
 10
-0.91251
 20
1.0712700000000002
 30
0.0
 10
-0.8727100000000001
 20
1.0581500000000001
 30
0.0
 10
-0.8423400000000001
 20
1.03179
 30
0.0
 10
-0.8423400000000001
 20
1.03179
 30
0.0
 10
-0.81196
 20
1.0054400000000001
 30
0.0
 10
-0.7940800000000001
 20
0.9694600000000001
 30
0.0
 10
-0.7886800000000001
 20
0.9240600000000001
 30
0.0
 10
-0.7886800000000001
 20
0.9240600000000001
 30
0.0
 10
-0.7886800000000001
 20
0.9240600000000001
 30
0.0
 10
-0.8783200000000001
 20
0.9153800000000001
 30
0.0
 10
-0.8783200000000001
 20
0.9153800000000001
 30
0.0
 10
-0.8783200000000001
 20
0.9153800000000001
 30
0.0
 10
-0.8833000000000001
 20
0.9418400000000001
 30
0.0
 10
-0.8928200000000001
 20
0.9609900000000001
 30
0.0
 10
-0.907
 20
0.9728500000000001
 30
0.0
 10
-0.907
 20
0.9728500000000001
 30
0.0
 10
-0.9211800000000001
 20
0.9847000000000001
 30
0.0
 10
-0.9400200000000001
 20
0.9906300000000001
 30
0.0
 10
-0.96362
 20
0.9906300000000001
 30
0.0
 10
-0.96362
 20
0.9906300000000001
 30
0.0
 10
-0.9894500000000001
 20
0.9906300000000001
 30
0.0
 10
-1.0135800000000001
 20
0.9827900000000001
 30
0.0
 10
-1.0360100000000001
 20
0.9671300000000001
 30
0.0
 10
-1.0360100000000001
 20
0.9671300000000001
 30
0.0
 10
-1.0584500000000001
 20
0.9513600000000001
 30
0.0
 10
-1.0763400000000001
 20
0.92681
 30
0.0
 10
-1.0897800000000002
 20
0.8934700000000001
 30
0.0
 10
-1.0897800000000002
 20
0.8934700000000001
 30
0.0
 10
-1.1032200000000001
 20
0.8601300000000001
 30
0.0
 10
-1.10999
 20
0.8268000000000001
 30
0.0
 10
-1.10999
 20
0.7934600000000001
 30
0.0
 10
-1.10999
 20
0.7934600000000001
 30
0.0
 10
-1.10999
 20
0.7570500000000001
 30
0.0
 10
-1.10121
 20
0.7290100000000001
 30
0.0
 10
-1.0837400000000001
 20
0.70911
 30
0.0
 10
-1.0837400000000001
 20
0.70911
 30
0.0
 10
-1.0662800000000001
 20
0.68932
 30
0.0
 10
-1.0444800000000001
 20
0.67937
 30
0.0
 10
-1.0184500000000001
 20
0.67937
 30
0.0
 10
-1.0184500000000001
 20
0.67937
 30
0.0
 10
-0.9943200000000001
 20
0.67937
 30
0.0
 10
-0.9720900000000001
 20
0.6872
 30
0.0
 10
-0.9519800000000001
 20
0.7029700000000001
 30
0.0
 10
-0.9519800000000001
 20
0.7029700000000001
 30
0.0
 10
-0.9317700000000001
 20
0.7186300000000001
 30
0.0
 10
-0.9167400000000001
 20
0.74192
 30
0.0
 10
-0.9069
 20
0.77271
 30
0.0
  0
SPLINE
  5
73
100
AcDbEntity
  8
Plan 1
 62
     7
100
AcDbSpline
210
0.0
220
0.0
230
1.0
 70
     1
 71
     3
 72
    36
 73
    32
 74
     0
 42
0.0000000001
 43
0.0000000001
 40
0.0
 40
0.0
 40
0.0
 40
0.0
 40
0.125
 40
0.125
 40
0.125
 40
0.125
 40
0.25
 40
0.25
 40
0.25
 40
0.25
 40
0.375
 40
0.375
 40
0.375
 40
0.375
 40
0.5
 40
0.5
 40
0.5
 40
0.5
 40
0.625
 40
0.625
 40
0.625
 40
0.625
 40
0.75
 40
0.75
 40
0.75
 40
0.75
 40
0.875
 40
0.875
 40
0.875
 40
0.875
 40
1.0
 40
1.0
 40
1.0
 40
1.0
 10
-0.4798600000000001
 20
0.70943
 30
0.0
 10
-0.4798600000000001
 20
0.70943
 30
0.0
 10
-0.6600900000000001
 20
0.70943
 30
0.0
 10
-0.6600900000000001
 20
0.70943
 30
0.0
 10
-0.6600900000000001
 20
0.70943
 30
0.0
 10
-0.6600900000000001
 20
0.70943
 30
0.0
 10
-0.7145900000000001
 20
0.60899
 30
0.0
 10
-0.7145900000000001
 20
0.60899
 30
0.0
 10
-0.7145900000000001
 20
0.60899
 30
0.0
 10
-0.7145900000000001
 20
0.60899
 30
0.0
 10
-0.81069
 20
0.60899
 30
0.0
 10
-0.81069
 20
0.60899
 30
0.0
 10
-0.81069
 20
0.60899
 30
0.0
 10
-0.81069
 20
0.60899
 30
0.0
 10
-0.5537300000000001
 20
1.0635400000000002
 30
0.0
 10
-0.5537300000000001
 20
1.0635400000000002
 30
0.0
 10
-0.5537300000000001
 20
1.0635400000000002
 30
0.0
 10
-0.5537300000000001
 20
1.0635400000000002
 30
0.0
 10
-0.4498
 20
1.0635400000000002
 30
0.0
 10
-0.4498
 20
1.0635400000000002
 30
0.0
 10
-0.4498
 20
1.0635400000000002
 30
0.0
 10
-0.4498
 20
1.0635400000000002
 30
0.0
 10
-0.37603
 20
0.60899
 30
0.0
 10
-0.37603
 20
0.60899
 30
0.0
 10
-0.37603
 20
0.60899
 30
0.0
 10
-0.37603
 20
0.60899
 30
0.0
 10
-0.46472
 20
0.60899
 30
0.0
 10
-0.46472
 20
0.60899
 30
0.0
 10
-0.46472
 20
0.60899
 30
0.0
 10
-0.46472
 20
0.60899
 30
0.0
 10
-0.4798600000000001
 20
0.70943
 30
0.0
 10
-0.4798600000000001
 20
0.70943
 30
0.0
  0
SPLINE
  5
74
100
AcDbEntity
  8
Plan 1
 62
     7
100
AcDbSpline
210
0.0
220
0.0
230
1.0
 70
     1
 71
     3
 72
    16
 73
    12
 74
     0
 42
0.0000000001
 43
0.0000000001
 40
0.0
 40
0.0
 40
0.0
 40
0.0
 40
0.3333333333333333
 40
0.3333333333333333
 40
0.3333333333333333
 40
0.3333333333333333
 40
0.6666666666666666
 40
0.6666666666666666
 40
0.6666666666666666
 40
0.6666666666666666
 40
1.0
 40
1.0
 40
1.0
 40
1.0
 10
-0.4913900000000001
 20
0.7851
 30
0.0
 10
-0.4913900000000001
 20
0.7851
 30
0.0
 10
-0.5177400000000001
 20
0.9680800000000001
 30
0.0
 10
-0.5177400000000001
 20
0.9680800000000001
 30
0.0
 10
-0.5177400000000001
 20
0.9680800000000001
 30
0.0
 10
-0.5177400000000001
 20
0.9680800000000001
 30
0.0
 10
-0.6274900000000001
 20
0.7851
 30
0.0
 10
-0.6274900000000001
 20
0.7851
 30
0.0
 10
-0.6274900000000001
 20
0.7851
 30
0.0
 10
-0.6274900000000001
 20
0.7851
 30
0.0
 10
-0.4913900000000001
 20
0.7851
 30
0.0
 10
-0.4913900000000001
 20
0.7851
 30
0.0
  0
SPLINE
  5
75
100
AcDbEntity
  8
Plan 1
 62
     7
100
AcDbSpline
210
0.0
220
0.0
230
1.0
 70
     1
 71
     3
 72
    36
 73
    32
 74
     0
 42
0.0000000001
 43
0.0000000001
 40
0.0
 40
0.0
 40
0.0
 40
0.0
 40
0.125
 40
0.125
 40
0.125
 40
0.125
 40
0.25
 40
0.25
 40
0.25
 40
0.25
 40
0.375
 40
0.375
 40
0.375
 40
0.375
 40
0.5
 40
0.5
 40
0.5
 40
0.5
 40
0.625
 40
0.625
 40
0.625
 40
0.625
 40
0.75
 40
0.75
 40
0.75
 40
0.75
 40
0.875
 40
0.875
 40
0.875
 40
0.875
 40
1.0
 40
1.0
 40
1.0
 40
1.0
 10
-0.16828
 20
0.60899
 30
0.0
 10
-0.16828
 20
0.60899
 30
0.0
 10
-0.26194
 20
0.60899
 30
0.0
 10
-0.26194
 20
0.60899
 30
0.0
 10
-0.26194
 20
0.60899
 30
0.0
 10
-0.26194
 20
0.60899
 30
0.0
 10
-0.18257
 20
0.9875600000000001
 30
0.0
 10
-0.18257
 20
0.9875600000000001
 30
0.0
 10
-0.18257
 20
0.9875600000000001
 30
0.0
 10
-0.18257
 20
0.9875600000000001
 30
0.0
 10
-0.31581
 20
0.9875600000000001
 30
0.0
 10
-0.31581
 20
0.9875600000000001
 30
0.0
 10
-0.31581
 20
0.9875600000000001
 30
0.0
 10
-0.31581
 20
0.9875600000000001
 30
0.0
 10
-0.30004
 20
1.0635400000000002
 30
0.0
 10
-0.30004
 20
1.0635400000000002
 30
0.0
 10
-0.30004
 20
1.0635400000000002
 30
0.0
 10
-0.30004
 20
1.0635400000000002
 30
0.0
 10
0.0581
 20
1.0635400000000002
 30
0.0
 10
0.0581
 20
1.0635400000000002
 30
0.0
 10
0.0581
 20
1.0635400000000002
 30
0.0
 10
0.0581
 20
1.0635400000000002
 30
0.0
 10
0.04233
 20
0.9875600000000001
 30
0.0
 10
0.04233
 20
0.9875600000000001
 30
0.0
 10
0.04233
 20
0.9875600000000001
 30
0.0
 10
0.04233
 20
0.9875600000000001
 30
0.0
 10
-0.08922
 20
0.9875600000000001
 30
0.0
 10
-0.08922
 20
0.9875600000000001
 30
0.0
 10
-0.08922
 20
0.9875600000000001
 30
0.0
 10
-0.08922
 20
0.9875600000000001
 30
0.0
 10
-0.16828
 20
0.60899
 30
0.0
 10
-0.16828
 20
0.60899
 30
0.0
  0
SPLINE
  5
76
100
AcDbEntity
  8
Plan 1
 62
     7
100
AcDbSpline
210
0.0
220
0.0
230
1.0
 70
     1
 71
     3
 72
    36
 73
    32
 74
     0
 42
0.0000000001
 43
0.0000000001
 40
0.0
 40
0.0
 40
0.0
 40
0.0
 40
0.125
 40
0.125
 40
0.125
 40
0.125
 40
0.25
 40
0.25
 40
0.25
 40
0.25
 40
0.375
 40
0.375
 40
0.375
 40
0.375
 40
0.5
 40
0.5
 40
0.5
 40
0.5
 40
0.625
 40
0.625
 40
0.625
 40
0.625
 40
0.75
 40
0.75
 40
0.75
 40
0.75
 40
0.875
 40
0.875
 40
0.875
 40
0.875
 40
1.0
 40
1.0
 40
1.0
 40
1.0
 10
0.2724
 20
0.70943
 30
0.0
 10
0.2724
 20
0.70943
 30
0.0
 10
0.09217
 20
0.70943
 30
0.0
 10
0.09217
 20
0.70943
 30
0.0
 10
0.09217
 20
0.70943
 30
0.0
 10
0.09217
 20
0.70943
 30
0.0
 10
0.03767
 20
0.60899
 30
0.0
 10
0.03767
 20
0.60899
 30
0.0
 10
0.03767
 20
0.60899
 30
0.0
 10
0.03767
 20
0.60899
 30
0.0
 10
-0.05843
 20
0.60899
 30
0.0
 10
-0.05843
 20
0.60899
 30
0.0
 10
-0.05843
 20
0.60899
 30
0.0
 10
-0.05843
 20
0.60899
 30
0.0
 10
0.19853
 20
1.0635400000000002
 30
0.0
 10
0.19853
 20
1.0635400000000002
 30
0.0
 10
0.19853
 20
1.0635400000000002
 30
0.0
 10
0.19853
 20
1.0635400000000002
 30
0.0
 10
0.30246
 20
1.0635400000000002
 30
0.0
 10
0.30246
 20
1.0635400000000002
 30
0.0
 10
0.30246
 20
1.0635400000000002
 30
0.0
 10
0.30246
 20
1.0635400000000002
 30
0.0
 10
0.37623
 20
0.60899
 30
0.0
 10
0.37623
 20
0.60899
 30
0.0
 10
0.37623
 20
0.60899
 30
0.0
 10
0.37623
 20
0.60899
 30
0.0
 10
0.28754
 20
0.60899
 30
0.0
 10
0.28754
 20
0.60899
 30
0.0
 10
0.28754
 20
0.60899
 30
0.0
 10
0.28754
 20
0.60899
 30
0.0
 10
0.2724
 20
0.70943
 30
0.0
 10
0.2724
 20
0.70943
 30
0.0
  0
SPLINE
  5
77
100
AcDbEntity
  8
Plan 1
 62
     7
100
AcDbSpline
210
0.0
220
0.0
230
1.0
 70
     1
 71
     3
 72
    16
 73
    12
 74
     0
 42
0.0000000001
 43
0.0000000001
 40
0.0
 40
0.0
 40
0.0
 40
0.0
 40
0.3333333333333333
 40
0.3333333333333333
 40
0.3333333333333333
 40
0.3333333333333333
 40
0.6666666666666666
 40
0.6666666666666666
 40
0.6666666666666666
 40
0.6666666666666666
 40
1.0
 40
1.0
 40
1.0
 40
1.0
 10
0.2608700000000001
 20
0.7851
 30
0.0
 10
0.2608700000000001
 20
0.7851
 30
0.0
 10
0.23452
 20
0.9680800000000001
 30
0.0
 10
0.23452
 20
0.9680800000000001
 30
0.0
 10
0.23452
 20
0.9680800000000001
 30
0.0
 10
0.23452
 20
0.9680800000000001
 30
0.0
 10
0.12477
 20
0.7851
 30
0.0
 10
0.12477
 20
0.7851
 30
0.0
 10
0.12477
 20
0.7851
 30
0.0
 10
0.12477
 20
0.7851
 30
0.0
 10
0.2608700000000001
 20
0.7851
 30
0.0
 10
0.2608700000000001
 20
0.7851
 30
0.0
  0
SPLINE
  5
78
100
AcDbEntity
  8
Plan 1
 62
     7
100
AcDbSpline
210
0.0
220
0.0
230
1.0
 70
     1
 71
     3
 72
    56
 73
    52
 74
     0
 42
0.0000000001
 43
0.0000000001
 40
0.0
 40
0.0
 40
0.0
 40
0.0
 40
0.0769230769230769
 40
0.0769230769230769
 40
0.0769230769230769
 40
0.0769230769230769
 40
0.1538461538461539
 40
0.1538461538461539
 40
0.1538461538461539
 40
0.1538461538461539
 40
0.2307692307692308
 40
0.2307692307692308
 40
0.2307692307692308
 40
0.2307692307692308
 40
0.3076923076923077
 40
0.3076923076923077
 40
0.3076923076923077
 40
0.3076923076923077
 40
0.3846153846153846
 40
0.3846153846153846
 40
0.3846153846153846
 40
0.3846153846153846
 40
0.4615384615384616
 40
0.4615384615384616
 40
0.4615384615384616
 40
0.4615384615384616
 40
0.5384615384615386
 40
0.5384615384615386
 40
0.5384615384615386
 40
0.5384615384615386
 40
0.6153846153846154
 40
0.6153846153846154
 40
0.6153846153846154
 40
0.6153846153846154
 40
0.6923076923076923
 40
0.6923076923076923
 40
0.6923076923076923
 40
0.6923076923076923
 40
0.7692307692307692
 40
0.7692307692307692
 40
0.7692307692307692
 40
0.7692307692307692
 40
0.846153846153846
 40
0.846153846153846
 40
0.846153846153846
 40
0.846153846153846
 40
0.9230769230769229
 40
0.9230769230769229
 40
0.9230769230769229
 40
0.9230769230769229
 40
1.0
 40
1.0
 40
1.0
 40
1.0
 10
0.6946800000000001
 20
0.60899
 30
0.0
 10
0.6946800000000001
 20
0.60899
 30
0.0
 10
0.6060000000000001
 20
0.60899
 30
0.0
 10
0.6060000000000001
 20
0.60899
 30
0.0
 10
0.6060000000000001
 20
0.60899
 30
0.0
 10
0.6060000000000001
 20
0.60899
 30
0.0
 10
0.5895900000000001
 20
0.9888300000000001
 30
0.0
 10
0.5895900000000001
 20
0.9888300000000001
 30
0.0
 10
0.5895900000000001
 20
0.9888300000000001
 30
0.0
 10
0.5895900000000001
 20
0.9888300000000001
 30
0.0
 10
0.5173100000000001
 20
0.60899
 30
0.0
 10
0.5173100000000001
 20
0.60899
 30
0.0
 10
0.5173100000000001
 20
0.60899
 30
0.0
 10
0.5173100000000001
 20
0.60899
 30
0.0
 10
0.43296
 20
0.60899
 30
0.0
 10
0.43296
 20
0.60899
 30
0.0
 10
0.43296
 20
0.60899
 30
0.0
 10
0.43296
 20
0.60899
 30
0.0
 10
0.5278900000000001
 20
1.0635400000000002
 30
0.0
 10
0.5278900000000001
 20
1.0635400000000002
 30
0.0
 10
0.5278900000000001
 20
1.0635400000000002
 30
0.0
 10
0.5278900000000001
 20
1.0635400000000002
 30
0.0
 10
0.6611300000000001
 20
1.0635400000000002
 30
0.0
 10
0.6611300000000001
 20
1.0635400000000002
 30
0.0
 10
0.6611300000000001
 20
1.0635400000000002
 30
0.0
 10
0.6611300000000001
 20
1.0635400000000002
 30
0.0
 10
0.6751
 20
0.74509
 30
0.0
 10
0.6751
 20
0.74509
 30
0.0
 10
0.6751
 20
0.74509
 30
0.0
 10
0.6751
 20
0.74509
 30
0.0
 10
0.8301500000000001
 20
1.0635400000000002
 30
0.0
 10
0.8301500000000001
 20
1.0635400000000002
 30
0.0
 10
0.8301500000000001
 20
1.0635400000000002
 30
0.0
 10
0.8301500000000001
 20
1.0635400000000002
 30
0.0
 10
0.9650900000000001
 20
1.0635400000000002
 30
0.0
 10
0.9650900000000001
 20
1.0635400000000002
 30
0.0
 10
0.9650900000000001
 20
1.0635400000000002
 30
0.0
 10
0.9650900000000001
 20
1.0635400000000002
 30
0.0
 10
0.8698400000000001
 20
0.60899
 30
0.0
 10
0.8698400000000001
 20
0.60899
 30
0.0
 10
0.8698400000000001
 20
0.60899
 30
0.0
 10
0.8698400000000001
 20
0.60899
 30
0.0
 10
0.78454
 20
0.60899
 30
0.0
 10
0.78454
 20
0.60899
 30
0.0
 10
0.78454
 20
0.60899
 30
0.0
 10
0.78454
 20
0.60899
 30
0.0
 10
0.8741800000000001
 20
0.9860700000000001
 30
0.0
 10
0.8741800000000001
 20
0.9860700000000001
 30
0.0
 10
0.8741800000000001
 20
0.9860700000000001
 30
0.0
 10
0.8741800000000001
 20
0.9860700000000001
 30
0.0
 10
0.6946800000000001
 20
0.60899
 30
0.0
 10
0.6946800000000001
 20
0.60899
 30
0.0
  0
SPLINE
  5
79
100
AcDbEntity
  8
Plan 1
 62
     7
100
AcDbSpline
210
0.0
220
0.0
230
1.0
 70
     1
 71
     3
 72
    36
 73
    32
 74
     0
 42
0.0000000001
 43
0.0000000001
 40
0.0
 40
0.0
 40
0.0
 40
0.0
 40
0.125
 40
0.125
 40
0.125
 40
0.125
 40
0.25
 40
0.25
 40
0.25
 40
0.25
 40
0.375
 40
0.375
 40
0.375
 40
0.375
 40
0.5
 40
0.5
 40
0.5
 40
0.5
 40
0.625
 40
0.625
 40
0.625
 40
0.625
 40
0.75
 40
0.75
 40
0.75
 40
0.75
 40
0.875
 40
0.875
 40
0.875
 40
0.875
 40
1.0
 40
1.0
 40
1.0
 40
1.0
 10
1.2599400000000001
 20
0.70943
 30
0.0
 10
1.2599400000000001
 20
0.70943
 30
0.0
 10
1.0797100000000002
 20
0.70943
 30
0.0
 10
1.0797100000000002
 20
0.70943
 30
0.0
 10
1.0797100000000002
 20
0.70943
 30
0.0
 10
1.0797100000000002
 20
0.70943
 30
0.0
 10
1.0252100000000002
 20
0.60899
 30
0.0
 10
1.0252100000000002
 20
0.60899
 30
0.0
 10
1.0252100000000002
 20
0.60899
 30
0.0
 10
1.0252100000000002
 20
0.60899
 30
0.0
 10
0.9291100000000001
 20
0.60899
 30
0.0
 10
0.9291100000000001
 20
0.60899
 30
0.0
 10
0.9291100000000001
 20
0.60899
 30
0.0
 10
0.9291100000000001
 20
0.60899
 30
0.0
 10
1.1860700000000002
 20
1.0635400000000002
 30
0.0
 10
1.1860700000000002
 20
1.0635400000000002
 30
0.0
 10
1.1860700000000002
 20
1.0635400000000002
 30
0.0
 10
1.1860700000000002
 20
1.0635400000000002
 30
0.0
 10
1.29
 20
1.0635400000000002
 30
0.0
 10
1.29
 20
1.0635400000000002
 30
0.0
 10
1.29
 20
1.0635400000000002
 30
0.0
 10
1.29
 20
1.0635400000000002
 30
0.0
 10
1.3637700000000001
 20
0.60899
 30
0.0
 10
1.3637700000000001
 20
0.60899
 30
0.0
 10
1.3637700000000001
 20
0.60899
 30
0.0
 10
1.3637700000000001
 20
0.60899
 30
0.0
 10
1.2750800000000002
 20
0.60899
 30
0.0
 10
1.2750800000000002
 20
0.60899
 30
0.0
 10
1.2750800000000002
 20
0.60899
 30
0.0
 10
1.2750800000000002
 20
0.60899
 30
0.0
 10
1.2599400000000001
 20
0.70943
 30
0.0
 10
1.2599400000000001
 20
0.70943
 30
0.0
  0
SPLINE
  5
7A
100
AcDbEntity
  8
Plan 1
 62
     7
100
AcDbSpline
210
0.0
220
0.0
230
1.0
 70
     1
 71
     3
 72
    16
 73
    12
 74
     0
 42
0.0000000001
 43
0.0000000001
 40
0.0
 40
0.0
 40
0.0
 40
0.0
 40
0.3333333333333333
 40
0.3333333333333333
 40
0.3333333333333333
 40
0.3333333333333333
 40
0.6666666666666666
 40
0.6666666666666666
 40
0.6666666666666666
 40
0.6666666666666666
 40
1.0
 40
1.0
 40
1.0
 40
1.0
 10
1.24841
 20
0.7851
 30
0.0
 10
1.24841
 20
0.7851
 30
0.0
 10
1.2220600000000001
 20
0.9680800000000001
 30
0.0
 10
1.2220600000000001
 20
0.9680800000000001
 30
0.0
 10
1.2220600000000001
 20
0.9680800000000001
 30
0.0
 10
1.2220600000000001
 20
0.9680800000000001
 30
0.0
 10
1.1123100000000001
 20
0.7851
 30
0.0
 10
1.1123100000000001
 20
0.7851
 30
0.0
 10
1.1123100000000001
 20
0.7851
 30
0.0
 10
1.1123100000000001
 20
0.7851
 30
0.0
 10
1.24841
 20
0.7851
 30
0.0
 10
1.24841
 20
0.7851
 30
0.0
  0
SPLINE
  5
7B
100
AcDbEntity
  8
Plan 1
 62
     7
100
AcDbSpline
210
0.0
220
0.0
230
1.0
 70
     1
 71
     3
 72
    68
 73
    64
 74
     0
 42
0.0000000001
 43
0.0000000001
 40
0.0
 40
0.0
 40
0.0
 40
0.0
 40
0.0625
 40
0.0625
 40
0.0625
 40
0.0625
 40
0.125
 40
0.125
 40
0.125
 40
0.125
 40
0.1875
 40
0.1875
 40
0.1875
 40
0.1875
 40
0.25
 40
0.25
 40
0.25
 40
0.25
 40
0.3125
 40
0.3125
 40
0.3125
 40
0.3125
 40
0.375
 40
0.375
 40
0.375
 40
0.375
 40
0.4375
 40
0.4375
 40
0.4375
 40
0.4375
 40
0.5
 40
0.5
 40
0.5
 40
0.5
 40
0.5625
 40
0.5625
 40
0.5625
 40
0.5625
 40
0.625
 40
0.625
 40
0.625
 40
0.625
 40
0.6875
 40
0.6875
 40
0.6875
 40
0.6875
 40
0.75
 40
0.75
 40
0.75
 40
0.75
 40
0.8125
 40
0.8125
 40
0.8125
 40
0.8125
 40
0.875
 40
0.875
 40
0.875
 40
0.875
 40
0.9375
 40
0.9375
 40
0.9375
 40
0.9375
 40
1.0
 40
1.0
 40
1.0
 40
1.0
 10
1.5162800000000001
 20
0.60899
 30
0.0
 10
1.5162800000000001
 20
0.60899
 30
0.0
 10
1.4227200000000002
 20
0.60899
 30
0.0
 10
1.4227200000000002
 20
0.60899
 30
0.0
 10
1.4227200000000002
 20
0.60899
 30
0.0
 10
1.4227200000000002
 20
0.60899
 30
0.0
 10
1.5178600000000002
 20
1.0635400000000002
 30
0.0
 10
1.5178600000000002
 20
1.0635400000000002
 30
0.0
 10
1.5178600000000002
 20
1.0635400000000002
 30
0.0
 10
1.5178600000000002
 20
1.0635400000000002
 30
0.0
 10
1.7196900000000002
 20
1.0635400000000002
 30
0.0
 10
1.7196900000000002
 20
1.0635400000000002
 30
0.0
 10
1.7196900000000002
 20
1.0635400000000002
 30
0.0
 10
1.7544000000000002
 20
1.0635400000000002
 30
0.0
 10
1.7815000000000001
 20
1.0599500000000002
 30
0.0
 10
1.8007600000000001
 20
1.0528600000000001
 30
0.0
 10
1.8007600000000001
 20
1.0528600000000001
 30
0.0
 10
1.8201200000000002
 20
1.04566
 30
0.0
 10
1.8357900000000003
 20
1.03264
 30
0.0
 10
1.8476400000000002
 20
1.01359
 30
0.0
 10
1.8476400000000002
 20
1.01359
 30
0.0
 10
1.8594900000000001
 20
0.99465
 30
0.0
 10
1.8654200000000001
 20
0.9715800000000001
 30
0.0
 10
1.8654200000000001
 20
0.9444800000000001
 30
0.0
 10
1.8654200000000001
 20
0.9444800000000001
 30
0.0
 10
1.8654200000000001
 20
0.90585
 30
0.0
 10
1.8538900000000003
 20
0.8738900000000001
 30
0.0
 10
1.8307100000000001
 20
0.8488100000000001
 30
0.0
 10
1.8307100000000001
 20
0.8488100000000001
 30
0.0
 10
1.8075300000000001
 20
0.8237300000000001
 30
0.0
 10
1.7725000000000002
 20
0.8081700000000001
 30
0.0
 10
1.7256200000000002
 20
0.8021400000000001
 30
0.0
 10
1.7256200000000002
 20
0.8021400000000001
 30
0.0
 10
1.7375700000000001
 20
0.7914500000000001
 30
0.0
 10
1.7489000000000001
 20
0.77727
 30
0.0
 10
1.7593800000000002
 20
0.7597
 30
0.0
 10
1.7593800000000002
 20
0.7597
 30
0.0
 10
1.7803300000000002
 20
0.72414
 30
0.0
 10
1.8035100000000002
 20
0.6738700000000001
 30
0.0
 10
1.8292300000000001
 20
0.60899
 30
0.0
 10
1.8292300000000001
 20
0.60899
 30
0.0
 10
1.8292300000000001
 20
0.60899
 30
0.0
 10
1.7286800000000002
 20
0.60899
 30
0.0
 10
1.7286800000000002
 20
0.60899
 30
0.0
 10
1.7286800000000002
 20
0.60899
 30
0.0
 10
1.7206400000000002
 20
0.6346000000000001
 30
0.0
 10
1.7048700000000001
 20
0.67461
 30
0.0
 10
1.68127
 20
0.7290100000000001
 30
0.0
 10
1.68127
 20
0.7290100000000001
 30
0.0
 10
1.6684700000000001
 20
0.7583200000000001
 30
0.0
 10
1.6548100000000001
 20
0.7781100000000001
 30
0.0
 10
1.6403100000000002
 20
0.78817
 30
0.0
 10
1.6403100000000002
 20
0.78817
 30
0.0
 10
1.6314200000000001
 20
0.7942
 30
0.0
 10
1.6159700000000001
 20
0.7971600000000001
 30
0.0
 10
1.5938500000000002
 20
0.7971600000000001
 30
0.0
 10
1.5938500000000002
 20
0.7971600000000001
 30
0.0
 10
1.5938500000000002
 20
0.7971600000000001
 30
0.0
 10
1.5557500000000002
 20
0.7971600000000001
 30
0.0
 10
1.5557500000000002
 20
0.7971600000000001
 30
0.0
 10
1.5557500000000002
 20
0.7971600000000001
 30
0.0
 10
1.5557500000000002
 20
0.7971600000000001
 30
0.0
 10
1.5162800000000001
 20
0.60899
 30
0.0
 10
1.5162800000000001
 20
0.60899
 30
0.0
  0
SPLINE
  5
7C
100
AcDbEntity
  8
Plan 1
 62
     7
100
AcDbSpline
210
0.0
220
0.0
230
1.0
 70
     1
 71
     3
 72
    36
 73
    32
 74
     0
 42
0.0000000001
 43
0.0000000001
 40
0.0
 40
0.0
 40
0.0
 40
0.0
 40
0.125
 40
0.125
 40
0.125
 40
0.125
 40
0.25
 40
0.25
 40
0.25
 40
0.25
 40
0.375
 40
0.375
 40
0.375
 40
0.375
 40
0.5
 40
0.5
 40
0.5
 40
0.5
 40
0.625
 40
0.625
 40
0.625
 40
0.625
 40
0.75
 40
0.75
 40
0.75
 40
0.75
 40
0.875
 40
0.875
 40
0.875
 40
0.875
 40
1.0
 40
1.0
 40
1.0
 40
1.0
 10
1.56993
 20
0.8654200000000001
 30
0.0
 10
1.56993
 20
0.8654200000000001
 30
0.0
 10
1.6195700000000002
 20
0.8654200000000001
 30
0.0
 10
1.6195700000000002
 20
0.8654200000000001
 30
0.0
 10
1.6195700000000002
 20
0.8654200000000001
 30
0.0
 10
1.6698400000000002
 20
0.8654200000000001
 30
0.0
 10
1.7031800000000001
 20
0.8683900000000001
 30
0.0
 10
1.7195800000000001
 20
0.8744200000000001
 30
0.0
 10
1.7195800000000001
 20
0.8744200000000001
 30
0.0
 10
1.7359900000000001
 20
0.8803500000000001
 30
0.0
 10
1.7489000000000001
 20
0.8897700000000001
 30
0.0
 10
1.7582100000000001
 20
0.9025700000000001
 30
0.0
 10
1.7582100000000001
 20
0.9025700000000001
 30
0.0
 10
1.7674200000000002
 20
0.9154800000000001
 30
0.0
 10
1.7720800000000001
 20
0.9288200000000001
 30
0.0
 10
1.7720800000000001
 20
0.9428900000000001
 30
0.0
 10
1.7720800000000001
 20
0.9428900000000001
 30
0.0
 10
1.7720800000000001
 20
0.9595100000000001
 30
0.0
 10
1.7654100000000001
 20
0.97189
 30
0.0
 10
1.7519700000000002
 20
0.9801500000000001
 30
0.0
 10
1.7519700000000002
 20
0.9801500000000001
 30
0.0
 10
1.7437100000000001
 20
0.9851200000000001
 30
0.0
 10
1.7258300000000002
 20
0.9875600000000001
 30
0.0
 10
1.6983100000000002
 20
0.9875600000000001
 30
0.0
 10
1.6983100000000002
 20
0.9875600000000001
 30
0.0
 10
1.6983100000000002
 20
0.9875600000000001
 30
0.0
 10
1.5954400000000002
 20
0.9875600000000001
 30
0.0
 10
1.5954400000000002
 20
0.9875600000000001
 30
0.0
 10
1.5954400000000002
 20
0.9875600000000001
 30
0.0
 10
1.5954400000000002
 20
0.9875600000000001
 30
0.0
 10
1.56993
 20
0.8654200000000001
 30
0.0
 10
1.56993
 20
0.8654200000000001
 30
0.0
  0
SPLINE
  5
7D
100
AcDbEntity
  8
Plan 1
 62
     7
100
AcDbSpline
210
0.0
220
0.0
230
1.0
 70
     1
 71
     3
 72
    36
 73
    32
 74
     0
 42
0.0000000001
 43
0.0000000001
 40
0.0
 40
0.0
 40
0.0
 40
0.0
 40
0.125
 40
0.125
 40
0.125
 40
0.125
 40
0.25
 40
0.25
 40
0.25
 40
0.25
 40
0.375
 40
0.375
 40
0.375
 40
0.375
 40
0.5
 40
0.5
 40
0.5
 40
0.5
 40
0.625
 40
0.625
 40
0.625
 40
0.625
 40
0.75
 40
0.75
 40
0.75
 40
0.75
 40
0.875
 40
0.875
 40
0.875
 40
0.875
 40
1.0
 40
1.0
 40
1.0
 40
1.0
 10
2.1771000000000003
 20
0.70943
 30
0.0
 10
2.1771000000000003
 20
0.70943
 30
0.0
 10
1.9968700000000001
 20
0.70943
 30
0.0
 10
1.9968700000000001
 20
0.70943
 30
0.0
 10
1.9968700000000001
 20
0.70943
 30
0.0
 10
1.9968700000000001
 20
0.70943
 30
0.0
 10
1.9423700000000002
 20
0.60899
 30
0.0
 10
1.9423700000000002
 20
0.60899
 30
0.0
 10
1.9423700000000002
 20
0.60899
 30
0.0
 10
1.9423700000000002
 20
0.60899
 30
0.0
 10
1.8462700000000001
 20
0.60899
 30
0.0
 10
1.8462700000000001
 20
0.60899
 30
0.0
 10
1.8462700000000001
 20
0.60899
 30
0.0
 10
1.8462700000000001
 20
0.60899
 30
0.0
 10
2.1032300000000004
 20
1.0635400000000002
 30
0.0
 10
2.1032300000000004
 20
1.0635400000000002
 30
0.0
 10
2.1032300000000004
 20
1.0635400000000002
 30
0.0
 10
2.1032300000000004
 20
1.0635400000000002
 30
0.0
 10
2.20716
 20
1.0635400000000002
 30
0.0
 10
2.20716
 20
1.0635400000000002
 30
0.0
 10
2.20716
 20
1.0635400000000002
 30
0.0
 10
2.20716
 20
1.0635400000000002
 30
0.0
 10
2.2809300000000001
 20
0.60899
 30
0.0
 10
2.2809300000000001
 20
0.60899
 30
0.0
 10
2.2809300000000001
 20
0.60899
 30
0.0
 10
2.2809300000000001
 20
0.60899
 30
0.0
 10
2.19224
 20
0.60899
 30
0.0
 10
2.19224
 20
0.60899
 30
0.0
 10
2.19224
 20
0.60899
 30
0.0
 10
2.19224
 20
0.60899
 30
0.0
 10
2.1771000000000003
 20
0.70943
 30
0.0
 10
2.1771000000000003
 20
0.70943
 30
0.0
  0
SPLINE
  5
7E
100
AcDbEntity
  8
Plan 1
 62
     7
100
AcDbSpline
210
0.0
220
0.0
230
1.0
 70
     1
 71
     3
 72
    16
 73
    12
 74
     0
 42
0.0000000001
 43
0.0000000001
 40
0.0
 40
0.0
 40
0.0
 40
0.0
 40
0.3333333333333333
 40
0.3333333333333333
 40
0.3333333333333333
 40
0.3333333333333333
 40
0.6666666666666666
 40
0.6666666666666666
 40
0.6666666666666666
 40
0.6666666666666666
 40
1.0
 40
1.0
 40
1.0
 40
1.0
 10
2.1655700000000002
 20
0.7851
 30
0.0
 10
2.1655700000000002
 20
0.7851
 30
0.0
 10
2.1392200000000003
 20
0.9680800000000001
 30
0.0
 10
2.1392200000000003
 20
0.9680800000000001
 30
0.0
 10
2.1392200000000003
 20
0.9680800000000001
 30
0.0
 10
2.1392200000000003
 20
0.9680800000000001
 30
0.0
 10
2.0294700000000003
 20
0.7851
 30
0.0
 10
2.0294700000000003
 20
0.7851
 30
0.0
 10
2.0294700000000003
 20
0.7851
 30
0.0
 10
2.0294700000000003
 20
0.7851
 30
0.0
 10
2.1655700000000002
 20
0.7851
 30
0.0
 10
2.1655700000000002
 20
0.7851
 30
0.0
  0
SPLINE
  5
7F
100
AcDbEntity
  8
Plan 1
 62
     7
100
AcDbSpline
210
0.0
220
0.0
230
1.0
 70
     1
 71
     3
 72
    44
 73
    40
 74
     0
 42
0.0000000001
 43
0.0000000001
 40
0.0
 40
0.0
 40
0.0
 40
0.0
 40
0.1
 40
0.1
 40
0.1
 40
0.1
 40
0.2
 40
0.2
 40
0.2
 40
0.2
 40
0.3
 40
0.3
 40
0.3
 40
0.3
 40
0.4
 40
0.4
 40
0.4
 40
0.4
 40
0.5
 40
0.5
 40
0.5
 40
0.5
 40
0.6
 40
0.6
 40
0.6
 40
0.6
 40
0.7
 40
0.7
 40
0.7
 40
0.7
 40
0.7999999999999999
 40
0.7999999999999999
 40
0.7999999999999999
 40
0.7999999999999999
 40
0.8999999999999999
 40
0.8999999999999999
 40
0.8999999999999999
 40
0.8999999999999999
 40
1.0
 40
1.0
 40
1.0
 40
1.0
 10
2.7014100000000001
 20
0.60899
 30
0.0
 10
2.7014100000000001
 20
0.60899
 30
0.0
 10
2.6142000000000003
 20
0.60899
 30
0.0
 10
2.6142000000000003
 20
0.60899
 30
0.0
 10
2.6142000000000003
 20
0.60899
 30
0.0
 10
2.6142000000000003
 20
0.60899
 30
0.0
 10
2.4914300000000003
 20
0.9144300000000001
 30
0.0
 10
2.4914300000000003
 20
0.9144300000000001
 30
0.0
 10
2.4914300000000003
 20
0.9144300000000001
 30
0.0
 10
2.4914300000000003
 20
0.9144300000000001
 30
0.0
 10
2.4276200000000001
 20
0.60899
 30
0.0
 10
2.4276200000000001
 20
0.60899
 30
0.0
 10
2.4276200000000001
 20
0.60899
 30
0.0
 10
2.4276200000000001
 20
0.60899
 30
0.0
 10
2.3405200000000002
 20
0.60899
 30
0.0
 10
2.3405200000000002
 20
0.60899
 30
0.0
 10
2.3405200000000002
 20
0.60899
 30
0.0
 10
2.3405200000000002
 20
0.60899
 30
0.0
 10
2.4353400000000001
 20
1.0635400000000002
 30
0.0
 10
2.4353400000000001
 20
1.0635400000000002
 30
0.0
 10
2.4353400000000001
 20
1.0635400000000002
 30
0.0
 10
2.4353400000000001
 20
1.0635400000000002
 30
0.0
 10
2.5227600000000003
 20
1.0635400000000002
 30
0.0
 10
2.5227600000000003
 20
1.0635400000000002
 30
0.0
 10
2.5227600000000003
 20
1.0635400000000002
 30
0.0
 10
2.5227600000000003
 20
1.0635400000000002
 30
0.0
 10
2.6458400000000002
 20
0.7593800000000001
 30
0.0
 10
2.6458400000000002
 20
0.7593800000000001
 30
0.0
 10
2.6458400000000002
 20
0.7593800000000001
 30
0.0
 10
2.6458400000000002
 20
0.7593800000000001
 30
0.0
 10
2.7094500000000004
 20
1.0635400000000002
 30
0.0
 10
2.7094500000000004
 20
1.0635400000000002
 30
0.0
 10
2.7094500000000004
 20
1.0635400000000002
 30
0.0
 10
2.7094500000000004
 20
1.0635400000000002
 30
0.0
 10
2.7962300000000004
 20
1.0635400000000002
 30
0.0
 10
2.7962300000000004
 20
1.0635400000000002
 30
0.0
 10
2.7962300000000004
 20
1.0635400000000002
 30
0.0
 10
2.7962300000000004
 20
1.0635400000000002
 30
0.0
 10
2.7014100000000001
 20
0.60899
 30
0.0
 10
2.7014100000000001
 20
0.60899
 30
0.0
  0
ENDSEC
  0
SECTION
  2
OBJECTS
  0
DICTIONARY
  5
19
100
AcDbDictionary
280
     0
281
     1
  3
ACAD_GROUP
350
1A
  3
ACAD_MLINESTYLE
350
1B
  3
ACAD_LAYOUT
350
1E
  3
ACAD_PLOTSETTINGS
350
22
  3
ACAD_PLOTSTYLENAME
350
1F
  3
ACAD_WIPEOUT_VARS
350
23
  0
DICTIONARY
  5
1A
102
{ACAD_REACTORS
330
19
102
}
100
AcDbDictionary
280
     0
281
     1
  0
DICTIONARY
  5
1B
102
{ACAD_REACTORS
330
19
102
}
100
AcDbDictionary
280
     0
281
     1
  3
Standard
350
1C
  0
MLINESTYLE
  5
1C
102
{ACAD_REACTORS
330
1B
102
}
100
AcDbMlineStyle
  2
Standard
 70
     0
  3

 62
     0
 51
90.0
 52
90.0
 71
     2
 49
0.5
 62
   256
  6
BYLAYER
 49
-0.5
 62
   256
  6
BYLAYER
  0
ACDBDICTIONARYWDFLT
  5
1F
102
{ACAD_REACTORS
330
19
102
}
100
AcDbDictionary
281
     1
  3
Normal
350
1D
100
AcDbDictionaryWithDefault
340
1D
  0
ACDBPLACEHOLDER
  5
1D
102
{ACAD_REACTORS
330
1F
102
}
  0
LAYOUT
  5
20
102
{ACAD_REACTORS
330
1E
102
}
100
AcDbPlotSettings
  1

  2

  4

  6

 40
0.0
 41
0.0
 42
0.0
 43
0.0
 44
0.0
 45
0.0
 46
0.0
 47
0.0
 48
0.0
 49
0.0
140
0.0
141
0.0
142
1.0
143
1.0
 70
  1024
 72
     0
 73
     0
 74
     0
  7

 75
     0
147
1.0
148
0.0
149
0.0
100
AcDbLayout
  1
Model
 70
     0
 71
     0
 10
0.0
 20
0.0
 11
0.0
 21
0.0
 12
0.0
 22
0.0
 32
0.0
 14
0.0
 24
0.0
 34
0.0
 15
0.0
 25
0.0
 35
0.0
146
0.0
 13
0.0
 23
0.0
 33
0.0
 16
0.0
 26
0.0
 36
0.0
 17
0.0
 27
0.0
 37
0.0
 76
     0
330
A
331
0
345
0
346
0
  0
LAYOUT
  5
21
102
{ACAD_REACTORS
330
1E
102
}
100
AcDbPlotSettings
  1

  2

  4

  6

 40
0.0
 41
0.0
 42
0.0
 43
0.0
 44
0.0
 45
0.0
 46
0.0
 47
0.0
 48
0.0
 49
0.0
140
0.0
141
0.0
142
1.0
143
1.0
 70
     0
 72
     0
 73
     0
 74
     0
  7

 75
     0
147
1.0
148
0.0
149
0.0
100
AcDbLayout
  1
Layout1
 70
     0
 71
     0
 10
0.0
 20
0.0
 11
0.0
 21
0.0
 12
0.0
 22
0.0
 32
0.0
 14
0.0
 24
0.0
 34
0.0
 15
0.0
 25
0.0
 35
0.0
146
0.0
 13
0.0
 23
0.0
 33
0.0
 16
0.0
 26
0.0
 36
0.0
 17
0.0
 27
0.0
 37
0.0
 76
     0
330
B
331
0
345
0
346
0
  0
DICTIONARY
  5
1E
102
{ACAD_REACTORS
330
19
102
}
100
AcDbDictionary
280
     0
281
     1
  3
Layout1
350
21
  3
Model
350
20
  0
DICTIONARY
  5
22
102
{ACAD_REACTORS
330
19
102
}
100
AcDbDictionary
280
     0
281
     1
  0
WIPEOUTVARIABLES
  5
23
100
AcDbWipeoutVariables
 70
     1
  0
ENDSEC
  0
EOF
